Song name
# A B C D E F G H I J K L M N O P Q R S T U V W X Y Z

System Of A Down - Atwa tab



System Of A Down
ATWA
tuning is drop c   C-G-C-F-A-D        Tabbed Sunday 22nd December
tabbed by Daniel Neaves    e-mail - neavesie@tpg.com.au
-----------------------------------------------------------------------
Ive found the other tabs to be copied and out of tune, hope this gives
you a clear sound.Its very simple.
-----------------------------------------------------------------------
         H = hammer on
D|-----------------------------------------------------------------|
A|-----------------------------------------------------------------|
F|----3-------2-------5-------7---------8-------7-------5-------3--|
C|-----------------------------------------------------------------|
G|-----------------------------------------------------------------|
C|5----5--3----3--7----7--8----8--10----10--8----8--7----7--5----5-|
  play 4 times.


D|-----------------------------------|
A|-----------------------------------|
F|-----------------------------------|
C|5555555--5555555--5555555--5555555-|
G|5555555--5555555--5555555--5555555-|
C|5555555--5555555--5555555--5555555-|
  play 2 times.

D|-----------------------------------------------------------------|
A|-----------------------------------------------------------------|
F|----3-------2-------5-------7---------8-------7-------5-------3--|
C|-----------------------------------------------------------------|
G|-----------------------------------------------------------------|
C|5----5--3----3--7----7--8----8--10----10--8----8--7----7--5----5-|
  play 3 times.



D|-----------------------------------|
A|-----------------------------------|
F|-----------------------------------|
C|5555555--5555555--5555555--5555555-|
G|5555555--5555555--5555555--5555555-|
C|5555555--5555555--5555555--5555555-|
  play 2 times. 


D|-------------------------------------------|
A|-------------------------------------------|
F|-------------------------------------------|
C|5-5-5-H66--5-5-5-H66--5-5-5-H66--5-5-5-H66-|
G|5-5-5-H66--5-5-5-H66--5-5-5-H66--5-5-5-H66-|
C|5-5-5-H66--5-5-5-H66--5-5-5-H66--5-5-5-H66-|


D|------------------------------------------------------------------|
A|------------------------------------------------------------------|
F|------------------------------------------------------------------|
C|5---55--3---33--7---77--8---88--10---1010--8---88--7---77--5---55-|
G|5---55--3---33--7---77--8---88--10---1010--8---88--7---77--5---55-|
C|5---55--3---33--7---77--8---88--10---1010--8---88--7---77--5---55-|


D|------------------------------------------------------------------|
A|------------------------------------------------------------------|
F|12-------10-------14-------15-------17-------15-------14------12--|
C|------------------------------------------------------------------|
G|------------------------------------------------------------------|
C|------------------------------------------------------------------|


D|------------------------------------------------------------------|
A|------------------------------------------------------------------|
F|------------------------------------------------------------------|
C|5---55--3---33--7---77--8---88--10---1010--8---88--7---77--5---55-|
G|5---55--3---33--7---77--8---88--10---1010--8---88--7---77--5---55-|
C|5---55--3---33--7---77--8---88--10---1010--8---88--7---77--5---55-|
  play 2 times.


D|-----------------------------------|
A|-----------------------------------|
F|-----------------------------------|
C|5555555--5555555--5555555--5555555-|
G|5555555--5555555--5555555--5555555-|
C|5555555--5555555--5555555--5555555-|
  play 2 times.


D|-------------------------------------------|
A|-------------------------------------------|
F|-------------------------------------------|
C|5-5-5-H66--5-5-5-H66--5-5-5-H66--5-5-5-H66-|
G|5-5-5-H66--5-5-5-H66--5-5-5-H66--5-5-5-H66-|
C|5-5-5-H66--5-5-5-H66--5-5-5-H66--5-5-5-H66-|


To get drop c tuning you must:
Make top E string sound the same as the 5th string 12 fret
Then tune all strings  together the standard tuning way from the 5th string
Then tune the top string down to the 5th string 12th fret again

Thats it, if it doesnt sound right then its not being played right.
Hope you enjoy.



                     
Tap to rate this tab
# A B C D E F G H I J K L M N O P Q R S T U V W X Y Z