Song name
# A B C D E F G H I J K L M N O P Q R S T U V W X Y Z

System Of A Down - Atwa tab

Help us improve GuitareTab! Take a short survey!
ive seen all the tabs for this song but no1 has yet got it right so heres how i play it

standard tuning

Part A
Intro/verse1 played x4
E--------------------------------------------- 
B---------------------------------------------
G--3-----1-----5-----6-----8-----6-----5-----3
D---------------------------------------------
A---------------------------------------------
E-3--3/1---1/5---5/6---6/8---8/6---6/5---5/3--


chorus (with distortion)
E-----------------------------
B-----------------------------
G-----------------------------
D--3-3-3-3-3-3---3-3-3-3-3-3-4
A--3-3-3-3-3-3---3-3-3-3-3-3-4
E--1-1-1-1-1-1---1-1-1-1-1-1-2
   \  Repeat  /

Part B
distortion sound
E-----------------------------------------------
B-----------------------------------------------
G---3-----1-----5-----6-----8-----6-----5------3
D-----------------------------------------------
A-----------------------------------------------
E-3---3/1---1/5---5/6---6/8---8/6---6/5---5/3---

Part C
E-----------------------------------
B-----------------------------------
G--3-3--1-1/5-5/6-6/8-8\6-6\5-5\3-3-
D-----------------------------------
A-----------------------------------
E-----------------------------------
 2nd time there is an effect

Part D
E------------------------------------------
B------------------------------------------
G------------------------------------------
D--5-5--3-3--7-7--8-8--10-10--8-8--7-7--5-5
A--5-5--3-3--7-7--8-8--10-10--8-8--7-7--5-5
E--3-3--1-1--5-5--6-6---8--8--6-6--5-5--3-3

song order
Part A
Chorus
Part B
Chorus
Part C
Part D
Chorus

Thanks 
any corrections that u ppl have e-mail me at 
robmarley67@hotmail.com

Remember enjoy!!!!!!!!!!
Related for Atwa tab