Song name
# A B C D E F G H I J K L M N O P Q R S T U V W X Y Z

System Of A Down - Toxicity tab

Help us improve GuitareTab! Take a short survey!
 this song is pretty easy so u should have no problem playing it.
 u dont need any special tunning just the regular one
HAVE FUN!!!
   


                                  TOXICITY 
                                        by
                                         boneynettworks
[-------------------------------------------------------------------------------------]
[-------------------------------------------------------------------------------------]
[------9-----9-----9-----9-----9-----9-----11-----11-----11-----11-----11-----11------]
[---7-----7-----7-----7-----7-----7-----9------9------9------9------9------9----------]
[-------------------------------------------------------------------------------------]
[-------------------------------------------------------------------------------------]



[--------------------------------------------------------------]
[--------------------------------------------------------------]
[------9-----9-----9--10--10--9--9--9--12--12--11--11--10--10--]
[---7-----7-----7----------------------------------------------]
[--------------------------------------------------------------]
[--------------------------------------------------------------]




hard:
[--------------------------------------]
[--------------------------------------]
[--------------------------------------]
[---------0--------3--------2--------0-]
[------0--------3--------2--------0----]
[---0--------3--------2--------0-------]



hard:
[---------------------------------------------------------]
[---------------------------------------------------------]
[---------------------------------------------------------]
[---------8--------8--------8--------8--------7--------7--]
[------8--------8--------8--------8--------7--------7-----]
[---8--------8--------8--------8--------7--------7--------]




hard:
[--------------------------------------]
[--------------------------------------]
[--------------------------------------]
[---------0--------3--------2--------0-]
[------0--------3--------2--------0----]
[---0--------3--------2--------0-------]




hard:
[---------------------------------------------------------]
[---------------------------------------------------------]
[---------------------------------------------------------]
[---------8--------8--------8--------8--------7--------7--]
[------8--------8--------8--------8--------7--------7-----]
[---8--------8--------8--------8--------7--------7--------]




                                                  X2
[-----------------------------------------------]
[-----------------------------------------------]
[-----------------------------------------------]
[---------3--------2--------0--------2--------0-]
[------3--------2--------0--------2--------0----]
[---3--------2--------0--------2--------0-------]





hard:
[---------------------------------------------------------]
[---------------------------------------------------------]
[---------------------------------------------------------]
[---------8--------8--------8--------8--------7--------7--]
[------8--------8--------8--------8--------7--------7-----]
[---8--------8--------8--------8--------7--------7--------]



hard:
[--------------------------------------]
[--------------------------------------]
[--------------------------------------]
[---------0--------3--------2--------0-]
[------0--------3--------2--------0----]
[---0--------3--------2--------0-------]




hard:
[---------------------------------------------------------]
[---------------------------------------------------------]
[---------------------------------------------------------]
[---------8--------8--------8--------8--------7--------7--]
[------8--------8--------8--------8--------7--------7-----]
[---8--------8--------8--------8--------7--------7--------]






[-------------------------------------------------------------------------------------]
[-------------------------------------------------------------------------------------]
[------9-----9-----9-----9-----9-----9-----11-----11-----11-----11-----11-----11------]
[---7-----7-----7-----7-----7-----7-----9------9------9------9------9------9----------]
[-------------------------------------------------------------------------------------]
[-------------------------------------------------------------------------------------]

                            up and dowm X3

[--------------------------------------------------------------]
[--------------------------------------------------------------]
[------9-----9-----9--10--10--9--9--9--12--12--11--11--10--10--]
[---7-----7-----7----------------------------------------------]
[--------------------------------------------------------------]
[--------------------------------------------------------------]






hard:
[--------------------------------------]
[--------------------------------------]
[--------------------------------------]
[---------0--------3--------2--------0-]
[------0--------3--------2--------0----]
[---0--------3--------2--------0-------]

hard:
[---------------------------------------------------------]
[---------------------------------------------------------]
[---------------------------------------------------------]
[---------8--------8--------8--------8--------7--------7--]
[------8--------8--------8--------8--------7--------7-----]
[---8--------8--------8--------8--------7--------7--------]




hard:
[--------------------------------------]
[--------------------------------------]
[--------------------------------------]
[---------0--------3--------2--------0-]
[------0--------3--------2--------0----]
[---0--------3--------2--------0-------]




hard:
[---------------------------------------------------------]
[---------------------------------------------------------]
[---------------------------------------------------------]
[---------8--------8--------8--------8--------7--------7--]
[------8--------8--------8--------8--------7--------7-----]
[---8--------8--------8--------8--------7--------7--------]




                                                  X2
[-----------------------------------------------]
[-----------------------------------------------]
[-----------------------------------------------]
[---------3--------2--------0--------2--------0-]
[------3--------2--------0--------2--------0----]
[---3--------2--------0--------2--------0-------]





hard:
[---------------------------------------------------------]
[---------------------------------------------------------]
[---------------------------------------------------------]
[---------8--------8--------8--------8--------7--------7--]
[------8--------8--------8--------8--------7--------7-----]
[---8--------8--------8--------8--------7--------7--------]



hard:
[--------------------------------------]
[--------------------------------------]
[--------------------------------------]
[---------0--------3--------2--------0-]
[------0--------3--------2--------0----]
[---0--------3--------2--------0-------]




hard:
[---------------------------------------------------------]
[---------------------------------------------------------]
[---------------------------------------------------------]
[---------8--------8--------8--------8--------7--------7--]
[------8--------8--------8--------8--------7--------7-----]
[---8--------8--------8--------8--------7--------7--------]






[-------------------------------------------------------------------------------------]
[-------------------------------------------------------------------------------------]
[------9-----9-----9-----9-----9-----9-----11-----11-----11-----11-----11-----11------]
[---7-----7-----7-----7-----7-----7-----9------9------9------9------9------9----------]
[-------------------------------------------------------------------------------------]
[-------------------------------------------------------------------------------------]

                            up and dowm X3

[--------------------------------------------------------------]
[--------------------------------------------------------------]
[------9-----9-----9--10--10--9--9--9--12--12--11--11--10--10--]
[---7-----7-----7----------------------------------------------]
[--------------------------------------------------------------]
[--------------------------------------------------------------]










hard:
[--------------------------------------]
[--------------------------------------]
[--------------------------------------]
[---------0--------3--------2--------0-]
[------0--------3--------2--------0----]
[---0--------3--------2--------0-------]



hard:
[---------------------------------------------------------]
[---------------------------------------------------------]
[---------------------------------------------------------]
[---------8--------8--------8--------8--------7--------7--]
[------8--------8--------8--------8--------7--------7-----]
[---8--------8--------8--------8--------7--------7--------]




hard:
[--------------------------------------]
[--------------------------------------]
[--------------------------------------]
[---------0--------3--------2--------0-]
[------0--------3--------2--------0----]
[---0--------3--------2--------0-------]




hard:
[---------------------------------------------------------]
[---------------------------------------------------------]
[---------------------------------------------------------]
[---------8--------8--------8--------8--------7--------7--]
[------8--------8--------8--------8--------7--------7-----]
[---8--------8--------8--------8--------7--------7--------]




                                                  X2
[-----------------------------------------------]
[-----------------------------------------------]
[-----------------------------------------------]
[---------3--------2--------0--------2--------0-]
[------3--------2--------0--------2--------0----]
[---3--------2--------0--------2--------0-------]





hard:
[---------------------------------------------------------]
[---------------------------------------------------------]
[---------------------------------------------------------]
[---------8--------8--------8--------8--------7--------7--]
[------8--------8--------8--------8--------7--------7-----]
[---8--------8--------8--------8--------7--------7--------]




                                                          repeat a LOT!
[------------------------------------------------------]
[------------------------------------------------------]
[------------------------------------------------------]
[---------0--------0--------0--------3--------0------2-]
[------0--------0--------0--------3--------0------2----]
[---0--------0--------0--------3--------0------2-------]




hard:
[---------------------------------------------------------]
[---------------------------------------------------------]
[---------------------------------------------------------]
[---------8--------8--------8--------8--------7--------7--]
[------8--------8--------8--------8--------7--------7-----]
[---8--------8--------8--------8--------7--------7--------]




hard:
[--------------------------------------]
[--------------------------------------]
[--------------------------------------]
[---------0--------3--------2--------0-]
[------0--------3--------2--------0----]
[---0--------3--------2--------0-------]




hard:
[---------------------------------------------------------]
[---------------------------------------------------------]
[---------------------------------------------------------]
[---------8--------8--------8--------8--------7--------7--]
[------8--------8--------8--------8--------7--------7-----]
[---8--------8--------8--------8--------7--------7--------]




                                                  X2
[-----------------------------------------------]
[-----------------------------------------------]
[-----------------------------------------------]
[---------3--------2--------0--------2--------0-]
[------3--------2--------0--------2--------0----]
[---3--------2--------0--------2--------0-------]





hard:
[---------------------------------------------------------]
[---------------------------------------------------------]
[---------------------------------------------------------]
[---------8--------8--------8--------8--------7--------7--]
[------8--------8--------8--------8--------7--------7-----]
[---8--------8--------8--------8--------7--------7--------]



hard:
[--------------------------------------]
[--------------------------------------]
[--------------------------------------]
[---------0--------3--------2--------0-]
[------0--------3--------2--------0----]
[---0--------3--------2--------0-------]




hard:
[---------------------------------------------------------]
[---------------------------------------------------------]
[---------------------------------------------------------]
[---------8--------8--------8--------8--------7--------7--]
[------8--------8--------8--------8--------7--------7-----]
[---8--------8--------8--------8--------7--------7--------]



             X5
[-----------]
[-----------]
[-----------]
[---------7-]
[------7----]
[---7-------] 



i told u this wasnt hard if u need any tips my screen name is boneynettworks

my email is boneynettworks@netscape.net

SEE YA!!!!!!!!!!!!!!!!!!!!!!!!!!!!!!!!!!!!!!!!!!!!!!!!!!!!!!!!!!!!!!!!!!!!!
Related for Toxicity tab