Song name
# A B C D E F G H I J K L M N O P Q R S T U V W X Y Z

System Of A Down - Toxicity tab

Tuning Drop C
(drop d, Full step down) C,G,C,F,A,D

b= Half-step ben
v= vibrato
*= Palm mute


Riff 1
D)--------------------------------------------------------------------------------(
A)--10-10-10-10-10-10-13-13-13-13-13-13-10-10-10-11-11-10-10-13-15-15-13-13-11-11-(
F)-7--7--7--7--7--7--10-10-10-10-10-10-7--7--7-----7-----7--10-10-10----10----10--(
C)--------------------------------------------------------------------------------(
G)--------------------------------------------------------------------------------(
C)--------------------------------------------------------------------------------(

Riff 2
D)--------------------------------------------------------------------------------(
A)--------------------------------------------------------------------------------(
F)--------------------------------------------------------------------------------(
C)--8--8--8--8--8--8--10-10-10-10-10-10-8--8--8--9--9--8--8--10-12-12-10-10-8--8--(
G)-5--5--5--5--5--5--8--8--8--8--8--8--5--5--5-----5-----5--8--8--8-----8-----8---(
C)--------------------------------------------------------------------------------(

Riff 3
D)-------------------------------------------(
A)-------------------------------------------(
F)-------------------------------------------(
C)-0--------------0----------8--888--7--777--(
G)-0----------32020----------8--888--7--777--(
C)-0----------32020----------8--888--7--777--(
PM            ****


Riff 4
D)-------------------------------------------(
A)-------------------------------------------(
F)-------------------------------------------(
C)---------------------------8--888--7--777--(
G)-320200320200320200320200--8--888--7--777--(
C)-320200320200320200320200--8--888--7--777--(
PM ************************

Riff 5
D)-------------------------------(
A)-------------------------------(
D)-------------------------------(
C)-------------------------------(
G)-0------------------3----------(
C)-0------------------3----------(


Riff 6
D)-----------------------12--13--12----------------------------------------------(
A)--10-10-10-10-10-10-13--13--13--13---10-10-10-11-11-10-10-13-15-15-13-13-11-11-(
F)-7--7--7--7--7--7--10-10-10--10--10-7--7--7-----7-----7--10-10-10----10----10--(
C)-------------------------------------------------------------------------------(
G)-------------------------------------------------------------------------------(
C)-------------------------------------------------------------------------------(


Riff 7
D)--------------------------------------------------------------------------------(
A)--------------------------------------------------------------------------------(
F)-----------------------9---10--9------------------------------------------------(
C)--8--8--8--8--8--8--10--10--10--10----8--8--8--9--9--8--8--10-12-12-10-10-8--8--(
G)-5--5--5--5--5--5--8--8---8---8---8--5--5--5-----5-----5--8--8--8-----8-----8---(
C)--------------------------------------------------------------------------------(

Riff 8
D)-------------------------------------(
A)-------------------------------------(
F)-------------------------------------(
C)-------------------------------------(
G)-0000-000-0000-000-3333-333-3333-333-(
C)-0000-000-0000-000-3333-333-3333-333-(

Riff 9
D)-------------------------------------------------(
A)-------------------------------------------------(
F)-------------------------------------------------(
C)-------------------------------------------------(
G)-5555558557b-5555558557v-5555558557b-5555558557\-(
C)-------------------------------------------------(

Riff 10 (all Palm Muted)
D)--------------------------(
A)--------------------------(
F)--------------------------(
C)--------------------------(
G)-300000300000300000300000-(
C)-300000300000300000300000-(

Riff 11
D)-------------------------------------------------(
A)-------------------------------------------------(
F)-------------------------------------------------(
C)-------------------------------------------------(
G)-------------------------------------------------(
C)-0-00003002b-0-00003002b-0-00003002b-0-00003002b-(
PM * *******   * *******   * *******   * *******


Song order

Guitar 1                      Guitar 2                  Guitar  3

Riff 1                        Riff 2                                        Intro
Riff 3                        Riff 3                                        Chorus
Riff 3                        Riff 3
Riff 4                        Riff 4
Riff 3                        Riff 3
Riff 1                        Riff 2                    Riff 5              Intro
Riff 6                        Riff 7                                        Verse
Riff 6                        Riff 7                    Riff 8  
Riff 3                        Riff 3                                        Chorus
Riff 3                        Riff 3
Riff 4                        Riff 4
Riff 1                        Riff 2                                        Intro
Riff 6                        Riff 7                                        Verse
Riff 6                        Riff 7                    Riff 8  
Riff 3                        Riff 3                                        Chorus
Riff 3                        Riff 3
Riff 4                        Riff 4
Riff 3                        Riff 3
Riff 9                                                                      Bridge
Riff 10                       Riff 10
Riff 11                       Riff 11
Riff 10                       Riff 10
Riff 3                        Riff 3                                        Chorus
Riff 3                        Riff 3
Riff 4                        Riff 4
Riff 3                        Riff 3
Riff 10                       Riff 10                                       Outro
Riff 11                       Riff 11 

End    
Tap to rate this tab
# A B C D E F G H I J K L M N O P Q R S T U V W X Y Z