Song name
# A B C D E F G H I J K L M N O P Q R S T U V W X Y Z

System Of A Down - Toxicity tab

Tuning(low to high)-C G C F A D
This is 100% right. I got the tab book.

Intro
D]---------------------------------------------]--------------------------------------
A]-----10-----10-----10------10------10------10]--------13-------13-------13--------13
F]--7------7------7-------7-------7------7-----]---10-------10-------10--------10-----
C]---------------------------------------------]--------------------------------------
G]---------------------------------------------]--------------------------------------
C]---------------------------------------------]--------------------------------------

------------------]
-------13-------13]
--10-------10-----]
------------------]
------------------]
------------------]

D]-----------------------------------------------]-------------------------------------
A]-----10-----10-----10----11------11---10-----10]-------13------15------15--13------13
F]--7------7------7------------7------------7----]---10------10------10----------10----
C]-----------------------------------------------]-------------------------------------
G]-----------------------------------------------]-------------------------------------
C]-----------------------------------------------]-------------------------------------

------------]
--11------11]
------10----]
------------]
------------]
------------]

Riff A
D]-----------------------]----------------------------]
A]-----------------------]----------------------------]
F]-----------------------]----------------------------]
C]--0-------------------0]--8----8--8--8--7----7--7--7]  2x
G]--0-------3--2--0--2--0]--8----8--8--8--7----7--7--7]
C]--0-------3--2--0--2--0]--8----8--8--8--7----7--7--7]

Riff B (play very fast)
D]-------------]
A]-------------]
F]-------------]
C]-------------]  4x
G]--3-2-0-2-0-0]
C]--3-2-0-2-0-0]

play Riff A again

verse
play intro first
D]---------------------------------------------]--------------12-----------13--------
A]-----10-----10-----10------10------10------10]------13----------13-----------13----
F]--7------7------7------7--------7------7-----]--10------10----------10-----------10
C]---------------------------------------------]-------------------------------------
G]---------------------------------------------]-------------------------------------
C]---------------------------------------------]-------------------------------------

--12------]
-----13---]
--------10]
----------]
----------]
----------]

D]-----------------------------------------]
A]-----13----15----15--13----13--11------11]
F]--10----10----10--------10---------10----]
C]-----------------------------------------]  2x
G]-----------------------------------------]
C]-----------------------------------------]

Chorus
Riff A
Riff B
Riff A

then play verse and chorus again

interlude
D]---------------------]
A]---------------------]
F]---------------------]
C]---------------------] 4x
G]--5-5-5-5-5-5-8-5-5-7]
C]---------------------]

Riff C
D]-------------]
A]-------------]
F]-------------]
C]-------------]  8x
G]--3-0-0-0-0-0]
C]--3-0-0-0-0-0]

Riff D
D]--------------------]
A]--------------------]
F]--------------------]
C]--------------------]  2x
G]--------------------]
C]--0--0-0-0-0-3-2-0-2]

Riff C

play chorus

then play Riff C, Riff D, Riff C

outro
D]------------------]---------------------]
A]------------------]---------------------]
F]------------------]---------------------]
C]------------------]---------------------]
G]------------------]---------------------]
C]--0---0--0-3-2-0-2]--0---0-0-0-0-3-2-0-2]

There you go.  If you think this is wrong then you can't read tabs.

You can email me what songs from system of a down's album toxicity you want me to tab at sumguy798@aol.com and I'll tab them when I got the time.
Tap to rate this tab
 
# A B C D E F G H I J K L M N O P Q R S T U V W X Y Z