Song name
# A B C D E F G H I J K L M N O P Q R S T U V W X Y Z

System Of A Down - Innervision tab

___________________________________________________________________________
								Innervision
___________________________________________________________________________

Tabbed By- Olin C
Email- olinclark@chartermi.net

Song- Innervision
Band- System of a Down
Album- Steal This Album

guitar 1- distortion 'Daron Malakian'
guitar 2- clean 'Daron Malakian'

THIS TAB IS 100% CORRECT

everything in this song guitar 1 unless otherwise marked
D|----------------------------------|
A|----------------------------------|
F|----------------------------------|
C|----1---1--1---1----1---1---1--1--|
G|----1---1--1---1----1---1---1--1--|
C|10\-1---1--1---1----1---1---1--1--|

D|------------------------------|
A|------------------------------|
F|------------------------------|
C|1---1--1---1----1---1---1--1--|x3
G|1---1--1---1----1---1---1--1--|
C|1---1--1---1----1---1---1--1--|

D|---------------------------------|
A|---------------------------------|
F|---------------------------------|
C|---------------------------------|x4
G|---------------------------------|
C|-0-0-0-5-5-5-3-3-3-1-1-1-3-3-1-1-|
P.M--------------------------------

D|---------------------------------|
A|---------------------------------|
F|---------------------------------|
C|---------------------------------|x2
G|---------------------------------|
C|-0-0-0-5-5-5-7-7-7-3-3-3-7-7-5-5-|
P.M--------------------------------

D|---------------------------------|
A|---------------------------------|
F|---------------------------------|
C|---------------------------------|x4
G|---------------------------------|
C|-0-0-0-5-5-5-3-3-3-1-1-1-3-3-1-1-|
P.M--------------------------------

D|---------------------------------|
A|---------------------------------|
F|---------------------------------|
C|---------------------------------|x2
G|---------------------------------|
C|-0-0-0-5-5-5-7-7-7-3-3-3-7-7-5-5-|
P.M--------------------------------

D|-------------|
A|-------------|
F|-------------|
C|-1---------1-|
G|-1---------1-|
C|-1---------1-|

guitar 2
D|---------------|
A|-----3-------3-|
F|---0-------0---|
C|-1-------1-----|
G|---------------|
C|---------------|

D|------------------|
A|------------------|
F|------------------|
C|------------------|x2
G|-0--5--7--3--7--5-|
C|-0--5--7--3--7--5-|

D|------------------------------|
A|------------------------------|
F|------------------------------|
C|1---1--1---1----1---1---1--1--|x2
G|1---1--1---1----1---1---1--1--|
C|1---1--1---1----1---1---1--1--|

D|---------------------------------|
A|---------------------------------|
F|---------------------------------|
C|---------------------------------|x4
G|---------------------------------|
C|-0-0-0-5-5-5-3-3-3-1-1-1-3-3-1-1-|
P.M--------------------------------

D|---------------------------------|
A|---------------------------------|
F|---------------------------------|
C|---------------------------------|x2
G|---------------------------------|
C|-0-0-0-5-5-5-7-7-7-3-3-3-7-7-5-5-|
P.M--------------------------------

D|---------------------------------|
A|---------------------------------|
F|---------------------------------|
C|---------------------------------|x4
G|---------------------------------|
C|-0-0-0-5-5-5-3-3-3-1-1-1-3-3-1-1-|
P.M--------------------------------

D|---------------------------------|
A|---------------------------------|
F|---------------------------------|
C|---------------------------------|x2
G|---------------------------------|
C|-0-0-0-5-5-5-7-7-7-3-3-3-7-7-5-5-|
P.M--------------------------------

D|-------------|
A|-------------|
F|-------------|
C|-1---------1-|
G|-1---------1-|
C|-1---------1-|

guitar 2
D|---------------|
A|-----3-------3-|
F|---0-------0---|
C|-1-------1-----|
G|---------------|
C|---------------|

D|------------------|
A|------------------|
F|------------------|
C|------------------|x2
G|-0--5--7--3--7--5-|
C|-0--5--7--3--7--5-|

D|------------------------------|
A|------------------------------|
F|------------------------------|
C|1---1--1---1----1---1---1--1--|x2
G|1---1--1---1----1---1---1--1--|
C|1---1--1---1----1---1---1--1--|

D|------------------|
A|------------------|
F|------------------|
C|------------------|x2
G|-0--5--7--3--7--5-|
C|-0--5--7--3--7--5-|

D|------------------------------|
A|------------------------------|
F|------------------------------|
C|1---1--1---1----1---1---1--1--|x2
G|1---1--1---1----1---1---1--1--|
C|1---1--1---1----1---1---1--1--|

D|------------------|
A|------------------|
F|------------------|
C|------------------|x2
G|-0--5--7--3--7--5-|
C|-0--5--7--3--7--5-|

D|--------------------------------------------------|
A|--------------------------------------------------|
F|--------------------------------------------------|
C|-1---1---1---1---1--1--1--1-1--1--1-1-1-1-1-1-1-1-|
G|-1---1---1---1---1--1--1--1-1--1--1-1-1-1-1-1-1-1-|
C|-1---1---1---1---1--1--1--1-1--1--1-1-1-1-1-1-1-1-|
P.M----------------------------------------
  Its never too late to reinvent the bicycle...

D|------------------|
A|------------------|
F|------------------|
C|------------------|x2
G|-0--5--7--3--7--5-|
C|-0--5--7--3--7--5-|

D|--------------------------------------------------|
A|--------------------------------------------------|
F|--------------------------------------------------|
C|-1---1---1---1---1--1--1--1-1--1--1-1-1-1-1-1-1-1-|
G|-1---1---1---1---1--1--1--1-1--1--1-1-1-1-1-1-1-1-|
C|-1---1---1---1---1--1--1--1-1--1--1-1-1-1-1-1-1-1-|
P.M----------------------------------------

D|------------------|
A|------------------|
F|------------------|
C|------------------|x2
G|-0--5--7--3--7--5-|
C|-0--5--7--3--7--5-|

D|--------------------------------------------------|
A|--------------------------------------------------|
F|--------------------------------------------------|
C|-1---1---1---1---1--1--1--1-1--1--1-1-1-1-1-1-1-1-|
G|-1---1---1---1---1--1--1--1-1--1--1-1-1-1-1-1-1-1-|
C|-1---1---1---1---1--1--1--1-1--1--1-1-1-1-1-1-1-1-|
P.M----------------------------------------
   Its never too late to reinvent the bicycle...

D|------------------|
A|------------------|
F|------------------|
C|------------------|x2
G|-0--5--7--3--7--5-|
C|-0--5--7--3--7--5-|

interlude
guitar 2
D|---------------------------------------------------------------------|
A|-11--11-11-11-1111-10--10-1010-10-1011-1111-11-111110--1010-10--1010-|
F|--8---8--8--8--8-8--7---7--7-7--7--7-8--8-8--8--8-8-7---7-7--7---7-7-|
C|--8---8--8--8--8-8--7---7--7-7--7--7-8--8-8--8--8-8-7---7-7--7---7-7-|
G|---------------------------------------------------------------------|
C|---------------------------------------------------------------------|

D|----------------------------------------------------------------------|
A|-11--11-11-11-1111-10--10-1010-10-1011--1111-11-111110--1010-10--1010-|
F|-10--10-10-10-1010--7---7--7-7--7--710--1010-10-1010-7---7-7--7---7-7-| 
C|--8---8--8--8--8-8--7---7--7-7--7--7-8---8-8--8--8-8-7---7-7--7---7-7-|
G|----------------------------------------------------------------------|
C|----------------------------------------------------------------------|

play the interlude twice
D|-------------------------------------------------------------|
A|-------------------------------------------------------------|
F|-------------------------------------------------------------|
C|-------------------------------------------------------------|
G|-5-----------------------------------------------------------|
C|-0-----------------------------------------------------------|
     ...the road that leads to all....vision

D|----------------------|
A|----------------------|
F|----------------------|
C|----------------------|x2
G|----------------------|
C|-0-0-5--5-3-3-1-1-3-1-|
P.M---------------------

D|------------------------------------------------------------|
A|------------------------------------------------------------|
F|------------------------------------------------------------|
C|------------------------------------------------------------|
G|------------------------------------------------------------|
C|-0-0-0-5-5-5-3-3-3-1-1-3-3-1-1-0-0-0-5-5-5-3-3-3-1-1-3-3-1-1|
P.M-----------------------------------------------------------
                 Sacred silence...
Tap to rate this tab
# A B C D E F G H I J K L M N O P Q R S T U V W X Y Z