Song name
# A B C D E F G H I J K L M N O P Q R S T U V W X Y Z

System Of A Down - Outer Space tab

Help us improve GuitareTab! Take a short survey!
-------------------------------------------------------------------------------
			    Outer Space - The Muffs
-------------------------------------------------------------------------------
Tabbed by: Spay
Email: radar.x.xombie@hotmail.com

Tuning: Standard

Intro: 
It's basically just a D chord

e|---------------------------|
B|---3--3--3-3-3-------------|
G|---2--2--2-2-2-------------|  x4
D|---0--0--0-0-0-------------|
A|---------------------------|
E|---------------------------|

Verse: "I'm pathetic now..."
Note that the strumming pattern isn't spot on

          D             G            E             A
e|-----------------1--1--1-1-1--------------------------------|
B|---3--3--3-3-3---0--0--0-0-0--------------------------------|
G|---2--2--2-2-2---0--0--0-0-0-----------------2--2--2-2-2----| x2
D|---0--0--0-0-0---0--0--0-0-0---2--2--2-2-2---2--2--2-2-2----|
A|-----------------2--2--2-2-2---2--2--2-2-2---0--0--0-0-0----|
E|-----------------3--3--3-3-3---0--0--0-0-0------------------|

Chorus: "And if you say everything is alright..."

          D             G             D             A
e|-----------------1--1--1-1-1--------------------------------|
B|---3--3--3-3-3---0--0--0-0-0---3--3--3-3-3------------------|
G|---2--2--2-2-2---0--0--0-0-0---2--2--2-2-2---2--2--2-2-2----|
D|---0--0--0-0-0---0--0--0-0-0---0--0--0-0-0---2--2--2-2-2----|
A|-----------------2--2--2-2-2-----------------0--0--0-0-0----|
E|-----------------3--3--3-3-3--------------------------------|

          D             G        D  A  D    G     D  A  D
e|-----------------1--1--1-1-1------------1-1-1------------------|
B|---3--3--3-3-3---0--0--0-0-0---3-----3--0-0-0---3-----3--------|
G|---2--2--2-2-2---0--0--0-0-0---2--2--2--0-0-0---2--2--2--------|
D|---0--0--0-0-0---0--0--0-0-0---0--2--0--0-0-0---0--2--0--------|
A|-----------------2--2--2-2-2------0-----2-2-2------0-----------|
E|-----------------3--3--3-3-3------------3-3-3------------------|

Little blurb before next verse:

e|-----------------------------|
B|---3--3--3--3-3-3-3--3-------|
G|---2--2--2--2-2-2-2--2-------|
D|---0--0--0--0-0-0-0--0-------|
A|-----------------------------|
E|-----------------------------|

Verse: "Welcome to my world now..."

       D             G            E             A
e|-----------------1--1--1-1-1--------------------------------|
B|---3--3--3-3-3---0--0--0-0-0--------------------------------|
G|---2--2--2-2-2---0--0--0-0-0-----------------2--2--2-2-2----| x2
D|---0--0--0-0-0---0--0--0-0-0---2--2--2-2-2---2--2--2-2-2----|
A|-----------------2--2--2-2-2---2--2--2-2-2---0--0--0-0-0----|
E|-----------------3--3--3-3-3---0--0--0-0-0------------------|

Chorus: "And if you say everything is alright..."

          D             G             D             A
e|-----------------1--1--1-1-1--------------------------------|
B|---3--3--3-3-3---0--0--0-0-0---3--3--3-3-3------------------|
G|---2--2--2-2-2---0--0--0-0-0---2--2--2-2-2---2--2--2-2-2----|
D|---0--0--0-0-0---0--0--0-0-0---0--0--0-0-0---2--2--2-2-2----|
A|-----------------2--2--2-2-2-----------------0--0--0-0-0----|
E|-----------------3--3--3-3-3--------------------------------|

          D             G        D  A  D    G     D  A  D
e|-----------------1--1--1-1-1------------1-1-1------------------|
B|---3--3--3-3-3---0--0--0-0-0---3-----3--0-0-0---3-----3--------|
G|---2--2--2-2-2---0--0--0-0-0---2--2--2--0-0-0---2--2--2--------|
D|---0--0--0-0-0---0--0--0-0-0---0--2--0--0-0-0---0--2--0--------| 
A|-----------------2--2--2-2-2------0-----2-2-2------0-----------|
E|-----------------3--3--3-3-3------------3-3-3------------------|
(Repeat the "Here in outer space" part 3 more times)


Bridge: "Well here I go again now..."
           C           F       Bb
e|-----------------------------------------|
B|---1-1-1-1-1-1-1-------------------------|
G|---0-0-0-0-0-0-0----------3-3-3-3--------| x2
D|---2-2-2-2-2-2-2--3-3-3-3-3-3-3-3--------|
A|---3-3-3-3-3-3-3--3-3-3-3-1-1-1-1--------|
E|------------------1-1-1-1----------------|

            C                F             D              G
e|-------------------------------------------------------1--1---|
B|---1-1-1-1-1-1-1-1-------------------3-3-3-3-3-3-3-3---0--0---|
G|---0-0-0-0-0-0-0-0-------------------2-2-2-2-2-2-2-2---0--0---|
D|---2-2-2-2-2-2-2-2--3-3-3-3-3-3-3-3--0-0-0-0-0-0-0-0---0--0---|
A|---3-3-3-3-3-3-3-3--3-3-3-3-3-3-3-3--------------------2--2---|
E|--------------------1-1-1-1-1-1-1-1--------------------3--3---|

Instrumental Bridge:

e|------------------------------------------------------------|
B|------------------------------------------------------------|
G|---8--8--8--8--------------10-10-10-10--7--7--8--7----------|
D|---8--8--8--8--6--6--6--6--10-10-10-10--7--7----------------|
A|---6--6--6--6--6--6--6--6--8--8--8--8---5--5----------------|
E|---------------4--4--4--4-----------------------------------|

e|------------------------------------------------------------|
B|------------------------------------------------------------|
G|---8--8--8--8--------------10-10-10-10--7--7/---------------|
D|---8--8--8--8--6--6--6--6--10-10-10-10--7--7/---------------|
A|---6--6--6--6--6--6--6--6--8--8--8--8---5--5/---------------|
E|---------------4--4--4--4-----------------------------------|

Chorus: "And if you say everything is alright..."

          D             G             D             A
e|-----------------1--1--1-1-1--------------------------------|
B|---3--3--3-3-3---0--0--0-0-0---3--3--3-3-3------------------|
G|---2--2--2-2-2---0--0--0-0-0---2--2--2-2-2---2--2--2-2-2----|
D|---0--0--0-0-0---0--0--0-0-0---0--0--0-0-0---2--2--2-2-2----|
A|-----------------2--2--2-2-2-----------------0--0--0-0-0----|
E|-----------------3--3--3-3-3--------------------------------|

          D             G        D  A  D    G     D  A  D
e|-----------------1--1--1-1-1------------1-1-1------------------|
B|---3--3--3-3-3---0--0--0-0-0---3-----3--0-0-0---3-----3--------|
G|---2--2--2-2-2---0--0--0-0-0---2--2--2--0-0-0---2--2--2--------|
D|---0--0--0-0-0---0--0--0-0-0---0--2--0--0-0-0---0--2--0--------|
A|-----------------2--2--2-2-2------0-----2-2-2------0-----------|
E|-----------------3--3--3-3-3------------3-3-3------------------|
(Now repeat the "Here in outer space" part as many times as needed)
(End on a D chord)

Anyway, it's a fun little song to play and I'm a fan of the 
girls voice. Just remember that you shouldn't take the tab
exactly as it is. I didn't add things like when she dampens
the strings since that tends to make the tab very 
difficult to read. So add as much flare as needed and have fun.

| /  slide up
| \  slide down
| h  hammer-on
| p  pull-off
| ~  vibrato
| +  harmonic
| x  Mute note
===============================================================================
Related for Outer Space tab