Song name
# A B C D E F G H I J K L M N O P Q R S T U V W X Y Z

System Of A Down - Chic N Stu tab

Artist:System of a Down
Song:Chic N Stu
Album:Steal This Album



                    Intro
|-10-10-10-10-10-10-10-10-10-10-10-10-10-10-10-10--|
|-9--9--9--9--9--9--9--9--9--9--9--9--9--9--9--9---|
|--------------------------------------------------|
|--------------------------------------------------|  (Repeat 2x)
|--------------------------------------------------|
|--------------------------------------------------|


                    Riff 1
|--------------------------------------------------------------------------|
|--------------------------------------------------------------------------|
|--------------------------------------------------------------------------|
|-0-----------------0-----------------0-------------------------------0----|
|-0---0-1-0-1-0-1-0-0---0-1-0-1-0-1-0-0---0-1-0-1-0-1-0-1-0-1-0-1-0-1-0----|
|-0---0-1-0-1-0-1-0-0---0-1-0-1-0-1-0-0---0-1-0-1-0-1-0-1-0-1-0-1-0-1-0----|
                                 Repeat 2x


                    Riff 2
|------------------------------------------------------------------------|
|-3-4-6-4-3-4-6-4-3-4-6-4-3----------------------------------------------|
|------------------------------------------------------------------------|
|----------------------------12------------------------------------------|
|----------------------------12--12-13-15-13-12-13-15-13-12-13-15-13-12--|
|----------------------------12------------------------------------------|
 ...........................     ........................................|


                            Riff 3
|--------------------------------------------------------------------|
|--------------------------------------------------------------------|
|--------------------------------------------------------------------|
|--------------------------------------------------------------------|
|--0---0-1-0---0-1-0---0-1-0-1-0-1-0---0-1-0---0-1-0---0-1-0-1-0-1---|
|--0---0-1-0---0-1-0---0-1-0-1-0-1-0---0-1-0---0-1-0---0-1-0-1-0-1---|
                      Repeat 2x(1st time P.M.)


                          Riff 4
|--10-10-10-10-10-10-10-10------10-10-10-10-10-10-10-10---|
|--9--9--9--9--9--9--9--9---------9--9--9--9--9--9--9--9--|
|---------------------------------------------------------|
|---------------------------------------------------------|
|---------------------------------------------------------|
|---------------------------------------------------------|



                          Riff 5
|-------------------------------------------------------------------|
|-------------------------------------------------------------------|
|-------------------------------------------------------------------|
|-------------------------------------------------------------------|
|--0---0-1-0---0-1-0---0-1-0-1-0-1-0---0-1-0---0-1-0---0-1-0-1-0-1--|
|--0---0-1-0---0-1-0---0-1-0-1-0-1-0---0-1-0---0-1-0---0-1-0-1-0-1--|
                         Repeat 3x(1st time P.M.)



Riff 6
|----11---|
|---9-----|
|--9------|
|---------|
|---------|
|---------|




                 Riff 7
|---------------------------------------|
|---------------------------------------|
|---------------------------------------|
|---------------------------------------|
|--0---0-1-0---0-1-0---0-1-0-1-0-1-0----|
|---------------------------------------|
 .......................................



Riff 8
|---------|
|---------|
|----8----|
|---6-----|
|--7------|
|---------|


Riff 9
|----9----|
|---7-----|
|--7------|
|---------|
|---------|
|---------|

Riff 10
              P.H.______________
|-----------x--------------------|
|--------------------------------|
|----6----------x-8-8-8-8-8-8-8--|
|---4----------------------------|
|--5-----------------------------|
|--------------------------------|
        Pitches:  G        Bb




Intro
Riff 1
Riff 2
Riff 3
Riff 4
Riff 1
Riff 2
Riff 5
Riff 6
Riff 7
Riff 6
Riff 7
Riff 6
Riff 6
Riff 8
Riff 6
Riff 9
Riff 10
Riff 1
Riff 5(last time P.M.)

First tab I've done so plz rate it. -Alex
Tap to rate this tab
 
# A B C D E F G H I J K L M N O P Q R S T U V W X Y Z