Song name
# A B C D E F G H I J K L M N O P Q R S T U V W X Y Z

System Of A Down - Feel Good tab

System of a Down
Feel Good
Drop B - as weird as it may seem


Guitar starts 0:32
Chorus A
C#|----------------------|
G#|----------------------|
E |----101010-----9-9----|
B |----x-x-x------x-x----| x4
F#|--0~8-8-8-0~-0~7-7-0~-|
B |--0~------0~-0~----0~-|


Verse  (Use fingers)
C#|----------------------|
G#|----------------------|
E |--9---9-8---9---9p8---|
B |--9---9-8---9---9p8---| x4
F#|----------------------|
B |----------------------|

Chorus A (x4)

Chorus B
1
C#|----------------------|------------------------------|
G#|----------------------|------------------------------|
E |----------------------|------------------------------|
B |-0~--0~6~--6~5~---6~--|-0~--0~6~--6~5~---6~----------| x2
F#|-0~--0~6~--6~5~---6~--|-0~--0~6~--6~5~---6~----------|
B |-0~--0~6~--6~5~---6~--|-0~--0~6~--6~5~---6~--005566--|
2
C#|----------------------|
G#|-15~---13~---12~--13~-|
E |-x-----x-----x----x---|
B |-12~---10~---9~---10~-| x4
F#|----------------------|
B |----------------------|

Verse (x3)


Bridge
C#|----------------------|
G#|----------------------|
E |----101010-----9-9----|
B |----x-x-x------x-x----| x4
F#|--0~8-8-8-0~-0~7-7-0~-|
B |--0~------0~-0~----0~-|

Then
1
C#|----------------------|
G#|----------------------|
E |----101010-----9-9----|
B |--0-x-x-x-0--0-x-x-0--| x4
F#|--0-8-8-8-0--0-7-7-0--|
B |--0-------0--0-----0--|
2
C#|----------------------|
G#|----------------------|
E |----------------------|
B |--12~~nearlly A.H-----|
F#|---repeat-------------|
B |----------------------|



Verse (x3.5)
Chorus A (x4) - Rhythmic pattern different
Chorus A (x4) - Normal
Chorus B (x3) - 0 0 6 at end (with octaves)

Ending Chorus A
1
C#|----------------------|
G#|----------------------|
E |----101010-----9-9----|
B |----x-x-x------x-x----| x4
F#|--0~8-8-8-0~-0~7-7-0~-|
B |--0~------0~-0~----0~-|
2 last repeat
C#|------------------------|
G#|------------------------|
E |----141414------1313----|
B |----x-x-x-------x-x-----|
F#|--0~121212-0~-0~1111-0~-|
B |--0~-------0~-0~-----0~-|
3
C#|----------------------|
G#|--15~~repeat----------|
E |----------------------|
B |----------------------|
F#|----------------------|
B |----------------------|


Punk
Bitch
Motherfucking Done!
Tap to rate this tab
# A B C D E F G H I J K L M N O P Q R S T U V W X Y Z