Song name
# A B C D E F G H I J K L M N O P Q R S T U V W X Y Z

Ted Nugent - Love Grenade tab

                           Ted Nugent
                        Song:Love Grenade

E|-------------------------------------------|
B|-------------------------------------------|
G|--0--3/5--3--0--3/5--0--0-0---3/5-3-0-/12--|
D|--0--3/5--3--0--3/5--0--0-0---3/5-3-0-/12--|
A|-------------------------------------------|
E|-------------------------------------------|

E|-----------------------------------------|
B|-----------------------------------------|
G|--0--3/5--3--0--3/5--0--0-0---3/5-3-0-3--|
D|--0--3/5--3--0--3/5--0--0-0---3/5-3-0-3--|
A|-----------------------------------------|
E|-----------------------------------------|
Tap to rate this tab
# A B C D E F G H I J K L M N O P Q R S T U V W X Y Z