Song name
# A B C D E F G H I J K L M N O P Q R S T U V W X Y Z

Teenage Bottlerocket - Without You tab

-------------------------------------------------------------------------------
			     Without You - Teenage Bottlerocket
-------------------------------------------------------------------------------
Tabbed by: Wrza
Email: wraystheroof@gmail.com

Tuning: STANDARD E

Intro/Verse
e|----------------------------------------------------------------------------|
B|----------------------------------------------------------------------------|
G|-5--------------------------------------------------------------------------|
D|-5--5--3--------------------------------------------------------------------|
A|-3--5--3--------------------------------------------------------------------|
E|----3--1--------------------------------------------------------------------|

Pre-Chorus
e|--------------------------------------------------------------------------|
B|--------------------------------------------------------------------------|
G|--------------------------------------------------------------------------|
D|-5--7--3------------------------------------------------------------------|
A|-5--7--3------------------------------------------------------------------|
E|-3--5--1------------------------------------------------------------------|

Chorus 1
e|--------------------------------------------------------------------------|
B|--------------------------------------------------------------------------|
G|-5------------------------------------------------------------------------|
D|-5--5--7--3---------------------------------------------------------------|
A|-3--5--7--3---------------------------------------------------------------|
E|----3--5--1---------------------------------------------------------------|

Chorus 2
e|----------------------------------------------------------------------------|
B|----------------------------------------------------------------------------|
G|-------5--------------------------------------------------------------------|
D|-7--5--5--3-----------------------------------------------------------------|
A|-7--5--3--3-----------------------------------------------------------------|
E|-5--3-----1-----------------------------------------------------------------|

************************************

| /   slide up
| \   slide down
| h   hammer-on
| p   pull-off
| ~   vibrato
| +   harmonic
| x   Mute note
| b   Bend
| pb  Pre-bend
| br  Bend release
| pbr Pre-bend release
| brb Bend release bend

************************************
Tap to rate this tab
 
# A B C D E F G H I J K L M N O P Q R S T U V W X Y Z