Song name
# A B C D E F G H I J K L M N O P Q R S T U V W X Y Z

Tesla - I Wanna Live tab

Help us improve GuitareTab! Take a short survey!
(played during whole song)
------------------------------|
------------------------------|
6-6-6---9-9-9-----------6-6-6-|
6-6-6---9-9-9---9-9-9---6-6-6-|
4-4-4---7-7-7---9-9-9---4-4-4-|
----------------7-7-7---------|

Chorus:
-------------------------------------------|
-------------------------------------------|
-----------------6-6-6-6--9-9-9-9----------|
--------7-7-7-7--6-6-6-6--9-9-9-9--9-9-9-9-|
2-2-2-2-7-7-7-7--4-4-4-4--7-7-7-7--9-9-9-9-|
--------5-5-5-5--------------------7-7-7-7-|

didn't find the rest..
contact if you have any comments
charlo542@hotmail.fr
Related for I Wanna Live tab