Song name
# A B C D E F G H I J K L M N O P Q R S T U V W X Y Z

Texas Hippie Coalition - Troublesome Times chords

CLEAN:
1
C----------------------------------------4------|C
F--------------------------------------3---3----|F
D------------------------------------2-------2--|D
C-----5--5---33--55--5-5-3P0-0-0--O-------------|C
G-----3--3---33--55--5-5-3P0-0-O----------------|G
C------------33--55--5-5-3P0-0-0----------------|C
2
C---------------------------------4------3------------------|C
F-----------------------------------3------3----------------|F
D-------------------------------------2------2-D  BACK TO 1-|
C-----5--5---33--55--5-5-3P0-0-0----------------------------|C
G-----3--3---33--55--5-5-3P0-0-O----------------------------|G
C------------33--55--5-5-3P0-0-0----------------------------|C

These are played like 3 times then the forth time you dont play 0 2 3 4 3 2, you stop a 
tree low strings.
Tap to rate this tab
 
# A B C D E F G H I J K L M N O P Q R S T U V W X Y Z