Song name
# A B C D E F G H I J K L M N O P Q R S T U V W X Y Z

Texas Hippie Coalition - Pissed Off And Mad About It tab

This is actually my first guitar Tab, but this is what i've came up for the song so 
 It's just kind of a layout of the whole song.


(/) Slide Up  (\) Slide Down  (h) Hammer On  (p) Pull Off  (b) Bend (r) Release (v) Vibrato

E|--------------------------------------|
B|--------------------------------------|
G|--------------------------------------|
D|--------------------------------------|
A|--0--0--1--0--0--0--3--3--5--5--3--3--|
D|--0--0--1--0--0--0--3--3--5--5--3--3--|   x times

E|--------------------------------|
B|--------------------------------|
G|--------------------------------|
D|--------------------------------|
A|--0--0--1--0--0--0--3--0--12\5--|
D|--0--0--1--0--0--0--3--0--12\5--|  x times

E|--------------------------------------|
B|--------------------------------------|
G|--------------------------------------|
D|--------------------------------------|
A|--0--0--1--0--0--0--3--3--5--5--3--3--|
D|--0--0--1--0--0--0--3--3--5--5--3--3--| x times

E|-------------------------------|
B|-------------------------------|
G|-------------------------------|
D|-------------------------------|
A|--0--0--0--0----------B3-------|
D|--0--0--0--0--0--3--5----3-----| x times
Tap to rate this tab
# A B C D E F G H I J K L M N O P Q R S T U V W X Y Z