Song name
# A B C D E F G H I J K L M N O P Q R S T U V W X Y Z

Texas In July - Reflections tab

This is my first tab, so go easy on me, and i learned it all by ear.
 Its probably not perfect but its the only tab of this song I've found
so I figured I might as well post it. Enjoy!

Figure A:
d-------------------------------------------------------|
a-------------------------------------------------------|
f--12-----------14----------15----------14--------------|
c-----12-12-12-----12-12-12----12-12-12----12-12-12/13--|
g-------------------------------------------------------|
c-------------------------------------------------------|

d-----------------------------------------------------|
a-----------------------------------------------------|
f--15---------14----------17----------15--------------|
c----13-13-13----13-13-13----13-13-13------13-13-13/15|
g-----------------------------------------------------|
c-----------------------------------------------------|

d------------------------------------------------------|
a------------------------------------------------------|
f--17----------15---------14---------15----------------|
c-----15-15-15---15-15-15---15-15-15-------------------|
g------------------------------------------------------|
c------------------------------------------------------|

d-------------13-18-------------------13-17-------------|
a----------15------15---------------15-----15-----------|
f--------14----------14-----------14---------14---------|    Repeat figure A
c-----15---------------15-------15-------------15-------|           3X
g--17--------------------17---17-----------------17-----|
c-------------------------------------------------------|

Figure B:
d--------------------------------------------------------------|
a--------------------------------------------------------------|
f--12--14--15--17--15-14h15p14p12---------12h14h15--15---14----|
c---------------------------------12h13h15---------------------|
g--------------------------------------------------------------|
c--------------------------------------------------------------|

d----------13-18-13--------------------------13-17-13-------------------|
a--------15--------15----------------------15--------15-----------------|
f------14------------14-----------14-----14------------14---------------|
c----15----------------15-------15-----15---------------15--------------|
g--17--------------------17---17-----17------------------17-------------|
c-----------------------------------------------------------------------|

d--17b18-17b18-17-15-15------------------------------------------|
a-------------------------------------16-16----------------------|
f-----------------------14-14-14-14/15---------------------------|
c----------------------------------------------------------------|
g----------------------------------------------------------------|
c----------------------------------------------------------------|

Figure C:
d--18-13-------13--18-18-13------13-18-18-13------13-18-18-13------13-18----|
a-------15---15------------15--15-----------15--15-----------15--15---------|
f----------14----------------14---------------14---------------14-----------|
c---------------------------------------------------------------------------|
g---------------------------------------------------------------------------|
c---------------------------------------------------------------------------|

d--17-13-------13-17-13------13-17-13-------13-17-13-------13-17-------|
a-------15---15---------15--15-------15--15---------15--15-------------|
f----------14-------------14-----------14-------------14---------------|
c----------------------------------------------------------------------|
g----------------------------------------------------------------------|
c----------------------------------------------------------------------|

Final Figure:
Just keep sweeping the middle section of Figure B for the basic idea. The notes are the 
but there are some different rhythms. Experiment! Its the best way to figure it out.
On the last sweep end with this:
d----------13-17-20-20b22----|
a--------15------------------|
f------14--------------------|
c----15----------------------|
g--17------------------------|
c----------------------------|
Tap to rate this tab
 
# A B C D E F G H I J K L M N O P Q R S T U V W X Y Z