Song name
# A B C D E F G H I J K L M N O P Q R S T U V W X Y Z

Texas In July - Cyclops tab

[Cyclops]
[One Reality]
[Texas In July]

Tuning: CGCFAD (Drop C / 1 Step Down From Drop D)
joshuaoliveira@hotmail.com

As Reqested By: ScarsCrucifix

[Riff 1] - [00:01] - [00:17]
- -----------------------------------------------------------------|
- -----------------------------------------------------------------|
- -----------------------------------------------------------------|
- -----------------------------------------------------------------|
- -0---0---0-0---0-0---0-0---0-0-0---0-0-0-0-0---0-0---0-0---0---0-|
- -0---0---0-0---0-0---0-0---0-0-0---0-0-0-0-0---0-0---0-0---0---0-|
PM ...............................................................

- -----------------------------------------------------------------|
- -----------------------------------------------------------------|
- -----------------------------------------------------------------|
- -----------------------------------------------------------------|
- -0---0---0-0---0-0---0-0---0-0-0---0-0-0-0-0---0-0---0-0---0-0-0-|
- -0---0---0-0---0-0---0-0---0-0-0---0-0-0-0-0---0-0---0-0---0-0-0-|
PM ...............................................................

- -----------------------------------------------------------------|
- -----------------------------------------------------------------|
- -----------------------------------------------------------------|
- -----------------------------------------------------------------|
- -0---0---0-0---0-0---0-0---0-0-0---0-0-0-0-0---0-0---0-0---0---0-|
- -0---0---0-0---0-0---0-0---0-0-0---0-0-0-0-0---0-0---0-0---0---0-|
PM ...............................................................

- -----------------------------------------------------------------|
- -----------------------------------------------------------------|
- -----------------------------------------------------------------|
- -----------------------------------------------------------------|
- -0---0---0-0---0-0---0-0---0-0-0-0-0-0---0-0---0-0---0-0---0-0-0-|
- -0---0---0-0---0-0---0-0---0-0-0-0-0-0---0-0---0-0---0-0---0-0-0-|
PM ...............................................................

[Riff 2] - [00:01] - [00:17-------------------------| - [4x]
- --------------------------------------------------|
- -------------------------17----18p17----18p17-----|
- -14----14----------17-----------------------------|
- ----12----12-15-15----15----19-------19-------19--|
- --------------------------------------------------|
- --------------------------------------------------|

- -------------------20h22-------------------------|
- -------------------------17p13-------------------|
- ----------17-------------------------------14----|
- -------------15-15-------------17p14----12----12-|
- -17-17-17----------------------------15----------|
- -------------------------------------------------|

----------------------------------------------------------------------------

[Riff 3] - [00:17] - [00:34------------------------------------------| - [2x]
- -------------------------------------------------------------------|
- -------------------------------------------------------------------|
- -------------------------------------------------------------------|
- -------------------------------------------------------------------|
- -8-8-8-8-------888-8-8-8-8-8-8-8---------888-8-888-8-8-8-8-8-8-10--|
- -8-8-8-8-------888-8-8-8-8-8-8-8---------888-8-888-8-8-8-8-8-8-10--|
PM ...............................................................

- -----------------------------------------------------------------|
- -----------------------------------------------------------------|
- -------------------------------------------------2-2-2-2-7-7-7-7-|
- -------------------------------------------------0-0-0-0-5-5-5-5-|
- -0-0-0-------0---0-0-0-----0-0-0---0-0-----------0-0-0-0-5-5-5-5-|
- -0-0-0-------0---0-0-0-----0-0-0---0-0-----------0-0-0-0-5-5-5-5-|
PM ...............................................

[Riff 4] - [00:17] - [01:06-----------------------------------------| - [6x]
- ------------------------------------------------------------------|
- -111111111111111111111111111111116-6-6-6-6-6-6-6-6-6-6-6-6-6-6-6--|
- -7-7-7-7-7-7-7-7-7-7-7-7-7-7-7-7-7-7-7-7-7-7-7-7-7-7-7-7-7-7-7-7--|
- -8-8-8-8-8-8-8-8-8-8-8-8-8-8-8-8-7-7-7-7-7-7-7-7-7-7-7-7-7-7-7-7--|
- ------------------------------------------------------------------|
- ------------------------------------------------------------------|

thats actually half as many notes but you get the idea.

----------------------------------------------------------------------------

[Riff 5] - [00:34] - [00:50-----------------------------------------| - [2x]
- -6---------6---------6---------6---------6---------6--------------|
- ---------------------------------------------------------------5--|
- ---7---7p5---8---7p5---7---7p5---7---7p5---7---7p5---7---7p5h7----|
- -----8---------9---------8---------8---------8---------8----------|
- ------------------------------------------------------------------|
- ------------------------------------------------------------------|

- -----------------------------------------------------------------|
- -6-----6---------6-----6---------6-----5---------6-----6-------5-|
- -------------------------------------------------------------7---|
- ---7-----7---5h7---7-----7---5-----7-----7---5h7---7-----7-------|
- -----8-----8---------8-----8---8-----8-----8---------8-----8-----|
- -----------------------------------------------------------------|

[Riff 6] - [00:50] - [01:06-------------------------| - [2x]
- -------------------13/17--------------------------|
- ----------18-------------18-------15-------18-----|
- -14h15p14----15p14----------19-14----14h15----15--|
- --------------------------------------------------|
- --------------------------------------------------|
- --------------------------------------------------|

- -------------------13/17-------------------12h13-|
- ----------18-------------18-------15-------------|
- -14h15p14----15p14----------19-14----14h15-------|
- -------------------------------------------------|
- -------------------------------------------------|
- -------------------------------------------------|

- -13/17~------------------------------------------|
- -------------------------------------------------|
- -------------------------------------------------|
- -------------------------------------------------|
- -------------------------------------------------|
- -------------------------------------------------|

- -------------------------------------------|
- ----------------------------------------10-|
- -10p9---------10p9--------------------9----|
- ------12p10-8------10------------8h12------|
- ----------------------12----8h12-----------|
- -------------------------10----------------|

above is the first ending, second time play:

- -13-13-13-13-13-13-13-13-12-12-12-12-12-12-12-12-|
- -------------------------------------------------|
- -10-10-10-10-10-10-10-10-9--9--9--9--9--9--9--9--|
- -------------------------------------------------|
- -------------------------------------------------|
- -------------------------------------------------|

i think its tracked as two seperate guitars, but you can def play them
both at the same time.

----------------------------------------------------------------------------

[Riff 7] - [01:06] - [01:19-----------------------------------------| - [3x]
- ------------------------------------------------------------------|
- ------------------------------------------------------------------|
- ------------------------------------------------------------------|
- ------------------------------------------------------------------|
- -0-------0-------0---0-0-----0-------0---0-0-----0-0-0-0---0-0-0--|
- -0-------0-------0---0-0-----0-------0---0-0-----0-0-0-0---0-0-0--|
PM ...............................................................

- -----------------------------------------------------------------|
- -----------------------------------------------------------------|
- -----------------------------------------------------------------|
- -----------------------------------------------------------------|
- -0-------0-------0-0-0-0---0-0-0-----0---0-0-----0-0-0-0-0-0-0-0-|
- -0-------0-------0-0-0-0---0-0-0-----0---0-0-----0-0-0-0-0-0-0-0-|
PM ...............................................................

- -----------------------------------------------------------------|
- -----------------------------------------------------------------|
- -----------------------------------------------------------------|
- -----------------------------------------------------------------|
- -0-------0-------0---0-0-----0-------0---0-0-----0-0-0-0---0-0-0-|
- -0-------0-------0---0-0-----0-------0---0-0-----0-0-0-0---0-0-0-|
PM ...............................................................

[Riff 2] - [01:06] - [01:19] - [3x]

[Riff 8a] - [01:19] - [01:23]
- ------------------------------------------------------------------|
- ------------------------------------------------------------------|
- -----------------------------121210101010101010101010101010101010-|
- -----------------------------x-x-x-x-x-x-x-x-x-x-x-x-x-x-x-x-x-x--|
- -0-------0-------0-0-0-0---0-10108-8-8-8-8-8-8-8-8-8-8-8-8-8-8-8--|
- -0-------0-------0-0-0-0---0--------------------------------------|
PM ...........................

[Riff 8b] - [01:19] - [01:23]
- -------------------------------------------------|
- -------------------------17----18p17----18p17----|
- -14----14----------17----------------------------|
- ----12----12-15-15----15----19-------19-------19-|
- -------------------------------------------------|
- -------------------------------------------------|

- -------------------------------------------------|
- -------------------------------------------------|
- -15-15-15-15-15-15-15-15-17-17-17-17-19-19-19-19-|
- -x--x--x--x--x--x--x--x--x--x--x--x--x--x--x--x--|
- -13-13-13-13-13-13-13-13-15-15-15-15-17-17-17-17-|
- -------------------------------------------------|

----------------------------------------------------------------------------

[Riff 9] - [01:23] - [01:39]
- -----------------------------------------------------------------|
- -----------------------------------------------------------------|
- -----------------------------------------------------------------|
- -----------------------------------------------------------------|
- -0-------0-0-----0---0-0---0-0-0-----0---0-0-----0-0-0-0---0-0-0-|
- -0-------0-0-----0---0-0---0-0-0-----0---0-0-----0-0-0-0---0-0-0-|
PM ...............................................................

- -----------------------------------------------------------------|
- -----------------------------------------------------------------|
- -----------------------------------------------------------------|
- -----------------------------------------------------------------|
- -0-------0-0-----0-0-0-0---0-0-0-----0---0-0-----0-0-0-0---0-0-0-|
- -0-------0-0-----0-0-0-0---0-0-0-----0---0-0-----0-0-0-0---0-0-0-|
PM ...............................................................

- -----------------------------------------------------------------|
- -----------------------------------------------------------------|
- -----------------------------------------------------------------|
- -----------------------------------------------------------------|
- -0-------0-------0---0-0---0-0-0-----0---0-0-----0-0-0-0---0-0-0-|
- -0-------0-------0---0-0---0-0-0-----0---0-0-----0-0-0-0---0-0-0-|
PM ...............................................................

- -----------------------------------------------------------------|
- -----------------------------------------------------------------|
- -----------------------------------------------------------------|
- -----------------------------------------------------------------|
- -0-------0-------0-0-0-0---0-0-0-----0---0-0-----0-0-0-0-5-5-5-5-|
- -0-------0-------0-0-0-0---0-0-0-----0---0-0-----0-0-0-0-5-5-5-5-|
PM ...............................................................


----------------------------------------------------------------------------

[Riff 3] - [01:39] - [01:55] - [2x]
[Riff 4] - [01:39] - [03:09] - [8x]

----------------------------------------------------------------------------

[Riff 10] - [01:55] - [03:09-----------------------------------------| - [3x]
- -------------------------------------------------------------------|
- -------------------------------------------------------------------|
- -1010101010101010101010101010101010101010101010101414141415151515--|
- -x-x-x-x-x-x-x-x-x-x-x-x-x-x-x-x-x-x-x-x-x-x-x-x-x-x-x-x-x-x-x-x---|
- -8-8-8-8-8-8-8-8-8-8-8-8-8-8-8-8-8-8-8-8-8-8-8-8-1212121213131313--|
- -------------------------------------------------------------------|

- -----------------------------------------------------------------|
- -----------------------------------------------------------------|
- -1414141414141414141414141414141414141414141414149-9-9-9-9-9-9-9-|
- -x-x-x-x-x-x-x-x-x-x-x-x-x-x-x-x-x-x-x-x-x-x-x-x-x-x-x-x-x-x-x-x-|
- -1212121212121212121212121212121212121212121212127-7-7-7-7-7-7-7-|
- -----------------------------------------------------------------|

- ------------------------------------------------------------------|
- ------------------------------------------------------------------|
- -1010101010101010101010101010101010101010101010101414141415151515-|
- -x-x-x-x-x-x-x-x-x-x-x-x-x-x-x-x-x-x-x-x-x-x-x-x-x-x-x-x-x-x-x-x--|
- -8-8-8-8-8-8-8-8-8-8-8-8-8-8-8-8-8-8-8-8-8-8-8-8-1212121213131313-|
- ------------------------------------------------------------------|

- -----------------------------------------------------------------|
- -----------------------------------------------------------------|
- -14141414141414141414141414141414171717171717171717179-9-9-9-9-9-|
- -x-x-x-x-x-x-x-x-x-x-x-x-x-x-x-x-x-x-x-x-x-x-x-x-x-x-x-x-x-x-x-x-|
- -12121212121212121212121212121212151515151515151515157-7-7-7-7-7-|
- -----------------------------------------------------------------|

[Riff 11] - [02:12] - [03:09--------------------------------| - [3x]
- -13p10------10h13p10------10h13p10------10h13p10------10--|
- ------11--11--------11--11--------11--11--------11--11----|
- --------10------------10------------10------------10------|
- ----------------------------------------------------------|
- ----------------------------------------------------------|
- ----------------------------------------------------------|

- -13/17p13------13h18-|
- ---------15--15------|
- -----------14--------|
- ---------------------|
- ---------------------|
- ---------------------|

- -17p13------13h17p13------13h17p13------13h17p13------13--|
- ------15--15--------15--15--------15--15--------15--15----|
- --------14------------14------------14------------14------|
- ----------------------------------------------------------|
- ----------------------------------------------------------|
- ----------------------------------------------------------|

- -17p12------12h13p12-|
- ------13--13---------|
- --------14-----------|
- ---------------------|
- ---------------------|
- ---------------------|

----------------------------------------------------------------------------

[Symbols]

PM... Palm Mute notes with ... under them
p     Pull Off
h     Hammer On
/     Slide Up
\     Slide Down
x     Dead Note
~     Let Ring

:)
Tap to rate this tab
# A B C D E F G H I J K L M N O P Q R S T U V W X Y Z