Song name
# A B C D E F G H I J K L M N O P Q R S T U V W X Y Z

The Acacia Strain - Whoa Shut It Down tab

                               WHOA! SHUT IT DOWN
                        As recorded by The Acacia Strain
                       (From the 2006 Album THE DEAD WALK)

Words by Vincent Bennet

Music by The Acacia Strain 
Transcribed by Patsyxcore

Gtr I (Ab Eb Ab Db F Bb) - 'Left'
Gtr II (Ab Eb Ab Db F Bb) - 'Right'
Gtr III (Ab Eb Ab Db F Bb) - 'Center'
Gtr IV (Ab Eb Ab Db F Bb) - 'Center'

 Intro
  Q=141
  N.C.
 4/4
  Gtr I
                                           ~~~
  S S S S E S S S S E Q         E Q        H     +E
|-----------------------------|----------------------|
|-----------------------------|----------------------|
|-----------------------------|----------------------|
|-----------------------------|----------------------|
|-----------------------------|-----------[3]----(3)-|
|-0-0-0-0---0-0-0-0-----------|----------------------|
|
| Gtr II
|                                          ~~~
| H             Q     S S S S   E S S S S  H     +E
|-----------------------------|----------------------|
|-----------------------------|----------------------|
|-----------------------------|----------------------|
|-----------------------------|----------------------|
|-----------------------------|-----------[3]----(3)-|
|---------------------0-0-0-0-|---0---0-0------------|


 "I'm so sick..."
  N.C.
 6/8
  S S S E S S S E S S   S E E S E E S S
|---------------------|-----------------|
|---------------------|-----------------|
|---------------------|-----------------|
|---------------------|-----------------|
|-0-0-0-0-0-0-0-0-0-0-|-0-0-0-0-0-0-0-0-|
|-1-1-1-1-1-1-1-1-1-1-|-1-1-1-1-1-1-1-1-|
|
| S S S E S S S E S S   S E E S E E S S
|---------------------|-----------------|
|---------------------|-----------------|
|---------------------|-----------------|
|---------------------|-----------------|
|-0-0-0-0-0-0-0-0-0-0-|-0-0-0-0-0-0-0-0-|
|-1-1-1-1-1-1-1-1-1-1-|-1-1-1-1-1-1-1-1-|


                     4/4
  E S S S E S S S E   S S S E E S E E S S E
|-------------------|------------------------|
|-------------------|------------------------|
|-------------------|------------------------|
|-------------------|------------------------|
|-0-0-0-0-0-0-0-0-0-|-0-0-0-0-0-0-0-0-0-0-0--|
|-1-1-1-1-1-1-1-1-1-|-1-1-1-1-1-1-1-1-1-1-1--|
|
| E S S S E S S S E   S S S E E S E E S S E
|-------------------|------------------------|
|-------------------|------------------------|
|-------------------|------------------------|
|-------------------|------------------------|
|-0-0-0-0-0-0-0-0-0-|-0-0-0-0-0-0-0-0-0-0-0--|
|-1-1-1-1-1-1-1-1-1-|-1-1-1-1-1-1-1-1-1-1-1--|


  N.C.          D5/AN.C.  D5/AN.C.
 6/8
  S S S E S S S E S S   S E E S E E S S
|---------------------|-----------------|
|---------------------|-----------------|
|---------------------|-----------------|
|---------------0-----|---0-0-----------|
|-0-0-0-0-0-0-0-0-0-0-|-0-0-0-0-0-0-0-0-|
|-1-1-1-1-1-1-1---1-1-|-1-----1-1-1-1-1-|
|
| S S S E S S S E S S   S E E S E E S S
|---------------------|-----------------|
|---------------------|-----------------|
|---------------------|-----------------|
|---------------0-----|---0-0-----------|
|-0-0-0-0-0-0-0-0-0-0-|-0-0-0-0-0-0-0-0-|
|-1-1-1-1-1-1-1---1-1-|-1-----1-1-1-1-1-|


                            D5/AN.C.D5/AN.C.
                     4/4
  E S S S E S S S E   S S S E E S E E S S E
|-------------------|------------------------|
|-------------------|------------------------|
|-------------------|------------------------|
|-------------------|-------0-----0-0--------|
|-0-0-0-0-0-0-0-0-0-|-0-0-0-0-0-0-0-0-0-0-0--|
|-1-1-1-1-1-1-1-1-1-|-1-1-1---1-1-----1-1-1--|
|
| E S S S E S S S E   S S S E E S E E S S E
|-------------------|------------------------|
|-------------------|------------------------|
|-------------------|------------------------|
|-------------------|-------0-----0-0--------|
|-0-0-0-0-0-0-0-0-0-|-0-0-0-0-0-0-0-0-0-0-0--|
|-1-1-1-1-1-1-1-1-1-|-1-1-1---1-1-----1-1-1--|


                           "So let's settle..."
  N.C.
  S S S E S S S E E  E E     Q  +E  Q  +E  Q
|------------------------||-------------------|
|------------------------||-------------------|
|------------------------||-------------------|
|------------------------||-------------------|
|-0-0-0-0-0-0-0-0--------||-/5--(5)-----------|
|-1-1-1-1-1-1-1-1-0s12s0-||---------4--(4)-3--|
|
| S S S E S S S E E  E E     Q  +E  Q  +E  Q
|------------------------||-------------------|
|------------------------||-------------------|
|------------------------||-------------------|
|------------------------||-------------------|
|-0-0-0-0-0-0-0-0--------||-/5--(5)-----------|
|-1-1-1-1-1-1-1-1-0s12s0-||---------4--(4)-3--|


  +E   Q  +E  E. E. E    Q  +E  Q  +E  Q
|---------------------|-------------------|
|---------------------|-------------------|
|---------------------|-------------------|
|---------------------|-------------------|
|-----/5--(5)---------|-/5--(5)-----------|
|-(3)---------4--3--1-|---------4--(4)-3--|
|
| +E   Q  +E  E. E. E    Q  +E  Q  +E  Q
|---------------------|-------------------|
|---------------------|-------------------|
|---------------------|-------------------|
|---------------------|-------------------|
|-----/5--(5)---------|-/5--(5)-----------|
|-(3)---------4--3--1-|---------4--(4)-3--|


  N.C.
               ~~~
  +E   Q  +E   H        Q  +E  Q  +E  Q
|--------------------|-------------------|
|--------------------|-------------------|
|--------------------|-------------------|
|--------------------|-------------------|
|-----/5--(5)-[4]----|-/5--(5)-----------|
|-(3)----------------|---------4--(4)-3--|
|
|              ~~~
| +E   Q  +E   H        Q  +E  Q  +E  Q
|--------------------|-------------------|
|--------------------|-------------------|
|--------------------|-------------------|
|--------------------|-------------------|
|-----/5--(5)-[4]----|-/8--(8)-----------|
|-(3)----------------|---------7--(7)-6--|


  +E   Q  +E  E. E. E    Q  +E  Q  +E  Q
|---------------------|--------------------|
|---------------------|--------------------|
|---------------------|--------------------|
|---------------------|--------------------|
|-----/5--(5)---------|-/5--(5)------------|
|-(3)---------4--3--1-|---------4--(4)-3---|
|
| +E   Q  +E  E. E. E    Q  +E  Q  +E  Q
|---------------------|--------------------|
|---------------------|--------------------|
|---------------------|--------------------|
|---------------------|--------------------|
|-----/8--(8)---------|-/8--(8)------------|
|-(6)---------7--6--4-|---------7--(7)-6---|


                       "Sorry I'm not..."
  N.C.                  D5
                        Gtr III
               ~~~
  +E   Q  +E   H        S S S E S S S E S S S E S   +S  S E H    Q
|--------------------||---------------------------|-----------------|
|--------------------||---------------------------|-----------------|
|--------------------||---------------------------|-----------------|
|--------------------||---------------------------|-----------------|
|-----/5--(5)-[4]----||-0-0-0-0-0-0-0-0-0-0-0-0-0-|-(0)-0-0---------|
|-(3)----------------||-0-0-0-0-0-0-0-0-0-0-0-0-0-|-(0)-0-0---------|
|
|                       Gtr IV
| +E   Q  +E   H        S S S E S S S E S S S E S   +S  S E H    Q
|--------------------||---------------------------|-----------------|
|--------------------||---------------------------|-----------------|
|--------------------||---------------------------|-----------------|
|--------------------||---------------------------|-----------------|
|-----/8--(8)-[4]----||-0-0-0-0-0-0-0-0-0-0-0-0-0-|-(0)-0-0---------|
|-(6)----------------||-0-0-0-0-0-0-0-0-0-0-0-0-0-|-(0)-0-0---------|


  D5
  S S S E S S S E S S S E S   +S  S E  H      Q     S S S E S S S E S S S E S
|---------------------------|---------------------|------------------------|
|---------------------------|---------------------|------------------------|
|---------------------------|---------------------|------------------------|
|---------------------------|---------------------|------------------------|
|-0-0-0-0-0-0-0-0-0-0-0-0-0-|-(0)-0-0-------------|-0-0-0-0-0-0-0-0-0-0-0-0-0-|
|-0-0-0-0-0-0-0-0-0-0-0-0-0-|-(0)-0-0-------------|-0-0-0-0-0-0-0-0-0-0-0-0-0-|
|
|                                      <
| S S S E S S S E S S S E S   +S  S E  H     +Q     S S S E S S S E S S S E S
|---------------------------|---------20----(20)--|------------------------|
|---------------------------|---------24----(24)--|------------------------|
|---------------------------|---------------------|------------------------|
|---------------------------|---------------------|------------------------|
|-0-0-0-0-0-0-0-0-0-0-0-0-0-|-(0)-0-0-------------|-0-0-0-0-0-0-0-0-0-0-0-0-0-|
|-0-0-0-0-0-0-0-0-0-0-0-0-0-|-(0)-0-0-------------|-0-0-0-0-0-0-0-0-0-0-0-0-0-|


  D5                                                N.C.
                                                Gtr I
  +S  S E H    Q    S S S E S S S E S S S E S   S S  Q  +E  H
|-----------------|---------------------------|------------------||
|-----------------|---------------------------|------------------||
|-----------------|---------------------------|------------------||
|-----------------|---------------------------|------------------||
|-(0)-0-0---------|-0-0-0-0-0-0-0-0-0-0-0-0-0-|-0-0--------------||
|-(0)-0-0---------|-0-0-0-0-0-0-0-0-0-0-0-0-0-|-0-0-/4--(4)-3----||
|
|                                               Gtr II
| +S  S E H    Q    S S S E S S S E S S S E S   S S  Q  +E  H
|-----------------|---------------------------|------------------||
|-----------------|---------------------------|------------------||
|-----------------|---------------------------|------------------||
|-----------------|---------------------------|------------------||
|-(0)-0-0---------|-0-0-0-0-0-0-0-0-0-0-0-0-0-|-0-0--------------||
|-(0)-0-0---------|-0-0-0-0-0-0-0-0-0-0-0-0-0-|-0-0-/8--(8)-7----||


   "And you again..."
    Q=203
    N.C.
    |-3--|
    E  E E E E E E E E   E E E E E E E E
||---------------------|-----------------|
||o--------------------|-----------------|
||---------------------|-----------------|
||---------------------|-----------------|
||o-5h=8p5-------------|-----------------|
||---------0-0-0-7-0-6-|-0-0-0-0-0-0-0-0-|
|
|   |-3--|
|   E  E E E E E E E E   E E E E E E E E
||---------------------|-----------------|
||o--------------------|-----------------|
||---------------------|-----------------|
||---------------------|-----------------|
||o-8h11p8-------------|-----------------|
||---------0-0-0-7-0-6-|-0-0-0-0-0-0-0-0-|


                        EbF5F#D5EbF5F#5
  E E E E E E E E   +E  E E E E E E E
|-----------------|--------------------||
|-----------------|-------------------o||
|-----------------|--------------------||
|-----------------|--------------------||
|-----------------|-----1-3-4-0-1-3-4-o||
|-0-0-0-0-0-7-0-6-|-(6)-1-3-4-0-1-3-4--||
|
| E E E E E E E E   +E  E E E E E E E
|-----------------|--------------------||
|-----------------|-------------------o||
|-----------------|--------------------||
|-----------------|--------------------||
|-----------------|-----1-3-4-0-1-3-4-o||
|-0-0-0-0-0-7-0-6-|-(6)-1-3-4-0-1-3-4--||


    N.C.
    Gtr I
     |---3----|
     E      E E E E E E E E     E  E E E E E E E
||--------------------------|--------------------|
||o-------------------------|--------------------|
||--------------------------|--------------------|
||--------------------------|--------------------|
||o--5h=====8p5-------------|--------------------|
||--------------0-0-0-7-0-6-|---0--0-0-0-0-0-0-0-|
|
|   Gtr II
|    |---3----|
|    E      E E E E E E E E     E  E E E E E E E
||--------------------------|--------------------|
||o-------------------------|--------------------|
||--------------------------|--------------------|
||--------------------------|--------------------|
||o--8h====11p8-------------|--------------------|
||--------------0-0-0-7-0-6-|---0--0-0-0-0-0-0-0-|
|
|   Gtr III
|    <
|    W                         +W
||--------------------------|--------------------|
||o-------------------------|--------------------|
||--19----------------------|-(19)---------------|
||--22b24===================|=(22)---------------|
||o-------------------------|--------------------|
||--------------------------|--------------------|


                              EbF5F#D5EbF5F#5
    E  E E E E E E E   +E     E E E E E E E
|--------------------|-----------------------||
|--------------------|----------------------o||
|--------------------|-----------------------||
|--------------------|-----------------------||
|--------------------|--------1-3-4-0-1-3-4-o||
|---0--0-0-0-0-7-0-6-|-(6)----1-3-4-0-1-3-4--||
|
|   E  E E E E E E E   +E     E E E E E E E
|--------------------|-----------------------||
|--------------------|----------------------o||
|--------------------|-----------------------||
|--------------------|-----------------------||
|--------------------|--------1-3-4-0-1-3-4-o||
|---0--0-0-0-0-7-0-6-|-(6)----1-3-4-0-1-3-4--||
|
|                       <
|  +W                   W
|--------------------|-----------------------||
|--------------------|----------------------o||
|-(19)---------------|-16--------------------||
|-(22)---------------|-19b21=================||
|--------------------|----------------------o||
|--------------------|-----------------------||


                            "No wonder destroying...
  H.=H                       Q=141
  D5   EbF5F#D5EbF5F#5       D5
    E  E E E E E E E          W
|-------------------------||-----------------------|
|-------------------------||-----------------------|
|-------------------------||-----------------------|
|-------------------------||--0--------------------|
|---0--1-3-4-0-1-3-4------||--0--------------------|
|---0--1-3-4-0-1-3-4------||--0--------------------|
|
|   E  E E E E E E E          S S S S Q  +E  E E E
|-------------------------||-----------------------|
|-------------------------||-----------------------|
|-------------------------||-----------------------|
|-------------------------||-----------------------|
|---0--1-3-4-0-1-3-4------||--0-0-0-0-0--(0)-0-0-0-|
|---0--1-3-4-0-1-3-4------||--0-0-0-0-0--(0)-0-0-0-|
|
|                             >
|  +W                  a      W
|-------------------------||-----------------------|
|-------------------------||-----------------------|
|-(16)---------------(16)-||-14--------------------|
|-(19)---------------(19)-||-----------------------|
|-------------------------||-----------------------|
|-------------------------||-----------------------|


 "
   +W                       +W
|-------------------------|-------------------------|
|-------------------------|-------------------------|
|-------------------------|-------------------------|
|--(0)--------------------|-(0)---------------------|
|--(0)--------------------|-(0)---------------------|
|--(0)--------------------|-(0)---------------------|
|
|  +E  E E Q  S S S S S S    S  S S S Q  +E  E E E
|-------------------------|-------------------------|
|-------------------------|-------------------------|
|-------------------------|-------------------------|
|-------------------------|-------------------------|
|--(0)-0-0-0--0-0-0-0-0-0-|--0--0-0-0-0--(0)-0-0-0--|
|--(0)-0-0-0--0-0-0-0-0-0-|--0--0-0-0-0--(0)-0-0-0--|
|
|  +W                        W
|-------------------------|-------------------------|
|-------------------------|-------------------------|
|-(14)--------------------|-------------------------|
|-------------------------|-------------------------|
|-------------------------|-------------------------|
|-------------------------|-------------------------|


  D5
  +H         H       a   W                      +W
|----------------------|----------------------|----------------------------|
|----------------------|----------------------|----------------------------|
|----------------------|----------------------|----------------------------|
|-(0)------------------|-0--------------------|-(0)------------------------|
|-(0)------------------|-0--------------------|-(0)------------------------|
|-(0)-------12s======0-|-0--------------------|-(0)------------------------|
|
|  E  E E E  E E E E     S S S S Q  +E  E E E   +E  E E Q  T T T T T E T T T
|----------------------|----------------------|----------------------------|
|----------------------|----------------------|----------------------------|
|----------------------|----------------------|----------------------------|
|----------------------|----------------------|----------------------------|
|----------------------|-0-0-0-0-0--(0)-0-0-0-|-(0)-0-0-0--0-0-0-0-0---0-0-0-|
|--0--1-3-4--0-1-3-4---|-0-0-0-0-0--(0)-0-0-0-|-(0)-0-0-0--0-0-0-0-0---0-0-0-|


  D5                           EbF5F#D5EbF5F#5
  +W                         E E E E E E E E   Wx2
|--------------------------|-----------------|--------||
|--------------------------|-----------------|--------||
|--------------------------|-----------------|--------||
|-(0)----------------------|-----------------|--------||
|-(0)----------------------|-0-1-3-4-0-1-3-4-|--------||
|-(0)----------------------|-0-1-3-4-0-1-3-4-|--------||
|
|  E  E Q  +E  S S S S S S   E E E E E E E E   Wx2
|--------------------------|-----------------|--------||
|--------------------------|-----------------|--------||
|--------------------------|-----------------|--------||
|--------------------------|-----------------|--------||
|--0--0-0--(0)-0-0-0-0-0-0-|-0-1-3-4-0-1-3-4-|--------||
|--0--0-0--(0)-0-0-0-0-0-0-|-0-1-3-4-0-1-3-4-|--------||


 "So who the..."
  D5
  Gtr III
  S S S S Q  +E  E E E   +E  E E Q  S S S S S S
|----------------------|------------------------|
|----------------------|------------------------|
|----------------------|------------------------|
|----------------------|------------------------|
|-0-0-0-0-0--(0)-0-0-0-|-(0)-0-0-0--0-0-0-0-0-0-|
|-0-0-0-0-0--(0)-0-0-0-|-(0)-0-0-0--0-0-0-0-0-0-|
|
| Gtr IV
| S S S S Q  +E  E E E   +E  E E Q  S S S S S S
|----------------------|------------------------|
|----------------------|------------------------|
|----------------------|------------------------|
|----------------------|------------------------|
|-0-0-0-0-0--(0)-0-0-0-|-(0)-0-0-0--0-0-0-0-0-0-|
|-0-0-0-0-0--(0)-0-0-0-|-(0)-0-0-0--0-0-0-0-0-0-|


                         N.C.
  S S S S Q  +E  E E E   E E E E E E E E
|----------------------|-------------------|
|----------------------|-------------------|
|----------------------|-------------------|
|----------------------|-------------------|
|-0-0-0-0-0--(0)-0-0-0-|-------------------|
|-0-0-0-0-0--(0)-0-0-0-|-0-1-3-4-0-1-3-4---|
|
| S S S S Q  +E  E E E   E E E E E E E E
|----------------------|-------------------|
|----------------------|-------------------|
|----------------------|-------------------|
|----------------------|-------------------|
|-0-0-0-0-0--(0)-0-0-0-|-------------------|
|-0-0-0-0-0--(0)-0-0-0-|-0-1-3-4-0-1-3-4---|


  D5
  S S S S Q  +E  E E E   +E  E E Q  T T T T T E T T T
|----------------------|------------------------------|
|----------------------|------------------------------|
|----------------------|------------------------------|
|----------------------|------------------------------|
|-0-0-0-0-0--(0)-0-0-0-|-(0)-0-0-0--0-0-0-0-0---0-0-0-|
|-0-0-0-0-0--(0)-0-0-0-|-(0)-0-0-0--0-0-0-0-0---0-0-0-|
|
| S S S S Q  +E  E E E   +E  E E Q  T T T T T E T T T
|----------------------|------------------------------|
|----------------------|------------------------------|
|----------------------|------------------------------|
|----------------------|------------------------------|
|-0-0-0-0-0--(0)-0-0-0-|-(0)-0-0-0--0-0-0-0-0---0-0-0-|
|-0-0-0-0-0--(0)-0-0-0-|-(0)-0-0-0--0-0-0-0-0---0-0-0-|


                     N.C.
  E E Q  +E  E E E   E  E E E E E E E
|------------------|-------------------|
|------------------|-------------------|
|------------------|-------------------|
|------------------|-------------------|
|-0-0-0--(0)-0-0-0-|-------------------|
|-0-0-0--(0)-0-0-0-|-0--1-3-4-0-1-3-4--|
|
|                    TP
| E E Q  +E  E E E   W
|------------------|-------------------|
|------------------|-------------------|
|------------------|-------------------|
|------------------|-x\----------------|
|-0-0-0--(0)-0-0-0-|-x\----------------|
|-0-0-0--(0)-0-0-0-|-x\----------------|


  D5
  S S S S Q  +E  E E E   +E  E E Q     S S  S  S S S
|----------------------|-----------------------------|
|----------------------|-----------------------------|
|----------------------|-----------------------------|
|----------------------|-----------------------------|
|-0-0-0-0-0--(0)-0-0-0-|-(0)-0-0-0-----0-0--0--0-0-0-|
|-0-0-0-0-0--(0)-0-0-0-|-(0)-0-0-0-----0-0--0--0-0-0-|
|
| W                      +H        +Q      +E    E
|----------------------|-----------------------------|
|----------------------|-----------------------------|
|-7--------------------|-(7)-------(7)-----(7)---7s==|
|-x--------------------|-------------------------x---|
|-5--------------------|-(5)-------(5)-----(5)---5s==|
|----------------------|-----------------------------|


                          N.C.
   S S S S Q  +E  E E E   E E E E E E E E
|-----------------------|-------------------|
|-----------------------|-------------------|
|-----------------------|-------------------|
|-----------------------|-------------------|
|--0-0-0-0-0--(0)-0-0-0-|-------------------|
|--0-0-0-0-0--(0)-0-0-0-|-0-1-3-4-0-1-3-4---|
|
|  W                      W
|-----------------------|-------------------|
|-----------------------|-------------------|
|-10--------------------|-9-----------------|
|--x--------------------|-x-----------------|
|--8--------------------|-7-----------------|
|-----------------------|-------------------|


  D5
  S S S S Q  +E  E E E   +E  E E Q  T T T T T E T T T
|----------------------|------------------------------|
|----------------------|------------------------------|
|----------------------|------------------------------|
|----------------------|------------------------------|
|-0-0-0-0-0--(0)-0-0-0-|-(0)-0-0-0--0-0-0-0-0---0-0-0-|
|-0-0-0-0-0--(0)-0-0-0-|-(0)-0-0-0--0-0-0-0-0---0-0-0-|
|
| W                      +W
|----------------------|------------------------------|
|----------------------|------------------------------|
|-7--------------------|-(7)--------------------------|
|-x--------------------|------------------------------|
|-5--------------------|-(5)--------------------------|
|----------------------|------------------------------|


                     D5  EbF5F#D5EbF5F#5
  E E Q  +E  E E E    E  E E E E E E E
|------------------|--------------------||
|------------------|--------------------||
|------------------|--------------------||
|------------------|--------------------||
|-0-0-0--(0)-0-0-0-|--0--1-3-4-0-1-3-4--||
|-0-0-0--(0)-0-0-0-|--0--1-3-4-0-1-3-4--||
|
| W                  +W
|------------------|--------------------||
|------------------|--------------------||
|-6----------------|-(6)----------------||
|-x----------------|--------------------||
|-4----------------|-(4)----------------||
|------------------|--------------------||


   "Do the world..."
    Q=203
    N.C.
    Gtr I
    |-3--|         |--3--|             |-3--|
    E  E E E E E E E  E  E   E E E E E E  E E E
||-------------------------|--------------------|
||o------------------------|--------------------|
||-------------------------|--------------------|
||-------------------------|--------------------|
||o-5--8-5---------5--8--7-|-4-3-5-8-7-5--8-5---|
||---------0-0-0-0---------|------------------8-|
|
|   Gtr II
|   |-3--|         |--3--|             |-3--|
|   E  E E E E E E E  E  E   E E E E E E  E E E
||-------------------------|--------------------|
||o------------------------|--------------------|
||-------------------------|--------------------|
||-------------------------|--------------------|
||o-8-11-8---------8-11-10-|-4-3-5-8-7-8-11-8---|
||---------0-0-0-0---------|------------------8-|


          1.
                       2/4
          |-3-| |-3-|           |-3-|
  E E E E E E E E E E   S S S S E E E
|---------------------|----------------||
|---------------------|---------------o||
|---------------------|----------------||
|---------------------|----------------||
|---------------------|---------------o||
|-7-0-0-0-0---0---0---|-0-0-0-0-0---0--||
|
|         |-3-| |-3-|           |-3-|
| E E E E E E E E E E   S S S S E E E
|---------------------|----------------||
|---------------------|---------------o||
|---------------------|----------------||
|---------------------|----------------||
|---------------------|---------------o||
|-7-0-0-0-0---0---0---|-0-0-0-0-0---0--||


  2.
  Bb5     E5        F5F#F5EbD5    F5F#F5
 4/4
                    |-3-|         |-3-|
  E E E E E E E E   E E E E E E E E E E
|-----------------|---------------------|
|-----------------|---------------------|
|-3-3-3-3---------|---------------------|
|-3-3-3-3-2-2-2-2-|---------------------|
|-1-1-1-1-2-2-2-2-|-3-4-3-1-0-0-0-3-4-3-|
|---------2-2-2-2-|-3-4-3-1-0-0-0-3-4-3-|
|
|                   |-3-|         |-3-|
| E E E E E E E E   E E E E E E E E E E
|-----------------|---------------------|
|-----------------|---------------------|
|-3-3-3-3---------|---------------------|
|-3-3-3-3-2-2-2-2-|---------------------|
|-1-1-1-1-2-2-2-2-|-3-4-3-1-0-0-0-3-4-3-|
|---------2-2-2-2-|-3-4-3-1-0-0-0-3-4-3-|


  EbF5F#F5  F#F5EbD5
          |-3-|       |-3-| |-3-|
  E E E E E E E E E   E E E E E E S S S S E E
|-------------------|--------------------------|
|-------------------|--------------------------|
|-------------------|--------------------------|
|-------------------|--------------------------|
|-1-3-4-3-3-4-3-1-0-|-0---0---0---0-0-0-0-0-0--|
|-1-3-4-3-3-4-3-1-0-|-0---0---0---0-0-0-0-0-0--|
|
|         |-3-|       |-3-| |-3-|
| E E E E E E E E E   E E E E E E S S S S E E
|-------------------|--------------------------|
|-------------------|--------------------------|
|-------------------|--------------------------|
|-------------------|--------------------------|
|-1-3-4-3-3-4-3-1-0-|-0---0---0---0-0-0-0-0-0--|
|-1-3-4-3-3-4-3-1-0-|-0---0---0---0-0-0-0-0-0--|


                                                                  H.=H
  F5F#F5EbD5    F5F#F5  EbF5F#F5  F#F5EbD5      Bb5   E5          G5
  |-3-|         |-3-|           |-3-|
  E E E E E E E E E E   E E E E E E E E E   E E E E E E E E   E E H    +Q
|---------------------|-------------------|-----------------|--------------|
|---------------------|-------------------|-----------------|--------------|
|---------------------|-------------------|-----3-3-3-------|--------------|
|---------------------|-------------------|-----3-3-3-2-2-2-|-2-2-5----(5)-|
|-3-4-3-1-0-0-0-3-4-3-|-1-3-4-3-3-4-3-1-0-|-0-0-1-1-1-2-2-2-|-2-2-5----(5)-|
|-3-4-3-1-0-0-0-3-4-3-|-1-3-4-3-3-4-3-1-0-|-0-0-------2-2-2-|-2-2-5----(5)-|
|
| |-3-|         |-3-|           |-3-|
| E E E E E E E E E E   E E E E E E E E E   E E E E E E E E   E E H    +Q
|---------------------|-------------------|-----------------|--------------|
|---------------------|-------------------|-----------------|--------------|
|---------------------|-------------------|-----3-3-3-------|--------------|
|---------------------|-------------------|-----3-3-3-2-2-2-|-2-2-5----(5)-|
|-3-4-3-1-0-0-0-3-4-3-|-1-3-4-3-3-4-3-1-0-|-0-0-1-1-1-2-2-2-|-2-2-5----(5)-|
|-3-4-3-1-0-0-0-3-4-3-|-1-3-4-3-3-4-3-1-0-|-0-0-------2-2-2-|-2-2-5----(5)-|


  G5         F#5
                         TP
   H    +Q   Q    +H     H
|---------------|--------------|
|---------------|--------------|
|-^7----(7)-----|--------------|
|-^5----(5)--4--|-(4)----x\----|
|-^5----(5)--4--|-(4)----x\----|
|-^5----(5)--4--|-(4)----x\----|
|
|                        TP
|  H    +Q   Q    +H     H
|---------------|--------------|
|---------------|--------------|
|-^7----(7)-----|--------------|
|-^5----(5)--4--|-(4)----x\----|
|-^5----(5)--4--|-(4)----x\----|
|-^5----(5)--4--|-(4)----x\----|


   "Your world is..."
    Q=141
    D5
    Gtr III
    S S S E S S S E S S S E S   +S  S E H    Q   3x
||----------------------------|------------------||
||o---------------------------|-----------------o||
||----------------------------|------------------||
||----------------------------|------------------||
||o-0-0-0-0-0-0-0-0-0-0-0-0-0-|-(0)-0-0---------o||
||--0-0-0-0-0-0-0-0-0-0-0-0-0-|-(0)-0-0----------||
|
|   Gtr IV
|   S S S E S S S E S S S E S   +S  S E H    Q   3x
||----------------------------|------------------||
||o---------------------------|-----------------o||
||----------------------------|------------------||
||----------------------------|------------------||
||o-0-0-0-0-0-0-0-0-0-0-0-0-0-|-(0)-0-0---------o||
||--0-0-0-0-0-0-0-0-0-0-0-0-0-|-(0)-0-0----------||


  D5                                N.C.
  S S S E S S S E S S S E S   +S  S Q  S S S S S S Q
|---------------------------|--------------------------|
|---------------------------|--------------------------|
|---------------------------|--------------------------|
|---------------------------|--------------------------|
|-0-0-0-0-0-0-0-0-0-0-0-0-0-|-(0)-0--------------------|
|-0-0-0-0-0-0-0-0-0-0-0-0-0-|-(0)-0-0--4-4-4-4-3-3-1/--|
|
| S S S E S S S E S S S E S   +S  S Q  S S S S S S Q
|---------------------------|--------------------------|
|---------------------------|--------------------------|
|---------------------------|--------------------------|
|---------------------------|--------------------------|
|-0-0-0-0-0-0-0-0-0-0-0-0-0-|-(0)-0--------------------|
|-0-0-0-0-0-0-0-0-0-0-0-0-0-|-(0)-0-0--4-4-4-4-3-3-1/--|


    D5
     S S S E S S S E S S S E S    +S  S E H      Q   4x
||-----------------------------|---------------------||
||o----------------------------|--------------------o||
||-----------------------------|---------------------||
||-----------------------------|---------------------||
||o--0-0-0-0-0-0-0-0-0-0-0-0-0-|--(0)-0-0-----------o||
||---0-0-0-0-0-0-0-0-0-0-0-0-0-|--(0)-0-0------------||
|
|    W                            +H          H      4x
||-----------------------------|---------------------||
||o-15-------------------------|-(15)--------15-----o||
||--19-------------------------|-(19)--------20------||
||-----------------------------|---------------------||
||o----------------------------|--------------------o||
||-----------------------------|---------------------||


 Outro
  N.C.                              D5
  S S S E S S S E S S S E S   +S  S E H    Q    W
|---------------------------|-----------------|------*|
|---------------------------|-----------------|------*|
|---------------------------|-----------------|------*|
|---------------------------|-----------------|------*|
|---------------------------|-------0---------|------*|
|-0-0-0-0-0-0-0-0-0-0-0-0-0-|-(0)-0-0---------|------*|
|
| S S S E S S S E S S S E S   +S  S E H    Q    W
|---------------------------|-----------------|------*|
|---------------------------|-----------------|------*|
|---------------------------|-----------------|------*|
|---------------------------|-----------------|------*|
|---------------------------|-------0---------|------*|
|-0-0-0-0-0-0-0-0-0-0-0-0-0-|-(0)-0-0---------|------*|


Duration Legend
---------------
W - whole; H - half; Q - quarter; E - 8th; S - 16th; T - 32nd; X - 64th; a - acciaccatura
+ - note tied to previous; . - note dotted; .. - note double dotted
Uncapitalized letters represent notes that are staccato (1/2 duration)
Irregular groupings are notated above the duration line
Duration letters will always appear directly above the note/fret number it represents the
duration for.  Duration letters with no fret number below them represent rests.  Multi-
bar rests are notated in the form Wxn, where n is the number of bars to rest for.  Low
melody durations appear below the staff

Tablature Legend
----------------
 h   - hammer-on
 p   - pull-off
 b   - bend
 pb  - pre-bend
 r   - bend release (if no number after the r, then release immediately)
 /\  - slide into or out of (from/to "nowhere")
 s   - legato slide
 S   - shift slide
  - natural harmonic
[n]  - artificial harmonic
n(n) - tapped harmonic
 ~   - vibrato
 tr  - trill
 T   - tap
 TP  - trem. picking
 PM  - palm muting
\n/  - tremolo bar dip; n = amount to dip
 \n  - tremolo bar down
 n/  - tremolo bar up
/n\  - tremolo bar inverted dip
 =   - hold bend; also acts as connecting device for hammers/pulls
 <>  - volume swell (louder/softer)
 x   - on rhythm slash represents muted slash
 o   - on rhythm slash represents single note slash

Misc Legend
-----------
 |  - bar
||  - double bar
||o - repeat start
o|| - repeat end
*|  - double bar (ending)
 :  - bar (freetime)
 $  - Segno
 &  - Coda
Tempo markers -  = BPM(8/16=s8/s16), where s8 = swing 8ths, s16 = swing 16th
Tap to rate this tab
# A B C D E F G H I J K L M N O P Q R S T U V W X Y Z