Song name
# A B C D E F G H I J K L M N O P Q R S T U V W X Y Z

The Acacia Strain - The Hills Have Eyes tab

-------------------------------------------------------
        THE HILLS HAVE EYES - The Acacia Strain
-------------------------------------------------------

Tabbed by: Bacon (check out my band As Judgement Day Approaches)
Email: f2bacon@gmail.com

Tuning: F C F A# D G for a 6 string. I'd add the extra
lines for a 7 or 8 string, but all that really matters
is the FCFA#  I know there's some speculation about 
Acacia's tuning, but I play this (and the rest of the 
album) in F, and it sounds right. Try for yourself!



|------------------------------------------------------|
|------------------------------------------------------|
|------------------------------------------------------|
|-5---1---4--8--4-------5---1---4--8-----4-44-44-------|
|-5---1---4--8--4-------5---1---4--8-----4-44-44-------|
|------------------------------------------------------|
play the intro riff as an intro twice, as a verse
(different picking) 2 times, then as an intro 2 more times.


|------------------------------------------------------|
|------------------------------------------------------|
|------------------------------------------------------|
|------------------------------------------------------|
|------------------------------------------------------|
|-00000-0000-00-000-00000-00000-0-1-0-3-0-4-3-1-0-1-3--|
|                                                      |x3
|------------------------------------------------------|
|------------------------------------------------------|
|------------------------------------------------------|
|-----------------------------------------3b-----------|
|-----------------------------------------3b-----------|
|-00000-0000-00-000-00000-00000-0-1-0-3-0--------------|


|------------------------------------------------------|
|------------------------------------------------------|
|------------------------------------------555----888--|
|------------------------------------------------------|
|------------------------------------------333----666--|
|-1-0-1-0-00000-1-0-1-1-0-00-1-0-1-0-00000-----00------|
|                                                      |x3
|------------------------------------------------------|
|------------------------------------------------------|
|------------------------------------------555---------|
|-------------------------------------------------444--|
|------------------------------------------333---------|
|-1-0-1-0-00000-1-0-1-1-0-00-1-0-1-0-00000-----00-444--|


back to the breakdown part up there.
then play the intro the same way you did, in the intro.


|------------------------------------------------------|
|------------------------------------------------------|
|------------------------------------------------------|
|------------------------------------------------------|
|------------------------------------------------------|
|-0~~~~~~~~~~~~~~~~~~--0~~~~~~~~~~~~~~~~~----scrape----|


|------------------------------------------------------|
|------------------------------------------------------|
|------------------------------------------------------|
|-------------------------------------------------3----|
|-------------------------------------------------3----| x4
|-1111111-11-111111-1111111-11111-111-0-1b-0-1b-0------|


|------------------------------------------------------|
|------------------------------------------------------|
|------------------------------------------------------|
|-------------------------------------------------3----| x4
|-------------------------------------------------3----|
|-11-111-11-11111-11-1111-111-11-111-1-0-1b-0-1b-0-----|


|------------------------------------------------------|
|------------------------------------------------------|
|------------------------------------------------------|
|-------------------------------------3----------------| x4
|-----s-------------------------------3----------------|
|-1111-11-111-1111-111111-0-1b-0-1b-0------------------|

to end it, just dont play the last 3.
Tap to rate this tab
# A B C D E F G H I J K L M N O P Q R S T U V W X Y Z