Song name
# A B C D E F G H I J K L M N O P Q R S T U V W X Y Z

The Academy Is - Neighbors tab

easy song from santi! i hope you like this one.

drop d
guitars 1&2: clean
guitar 3: distorted, quieter than guitar 1&2

Intro (repeat through verse)

Guitar 3
e|----------|
B|----------|
G|-55-555-5-|
D|-55-555-5-|
A|-33-333-3-|
E|------3-3-|

Chorus x2

Guitar 1
e|--------------------------------------|
B|--------0------------------1010101010-|
G|-5555555-3333333-777777777-1010101010-|
D|-5555555-3333333-777777777-1010101010-|
A|-3333333-1111111-555555555-8-8-8-8-8--|
E|--------------------------------------|

Guitar 2 play this with each chord from guitar 1
e|---888---888--88-|
B|888---888---88---|
G|-----------------|
D|-----------------|
A|-----------------|
E|-----------------|

intro to bridge 1

guitar 1
e|-12////-|
B|--------|
G|--------| no guitar for most of bridge 1
D|--------|
A|--------|
E|--------|

Intro (repeated through verse)

Chorus x2

Bridge 2

guitar 1-intro to bridge 1

guitar 2(repeat through bridge)
e|-------------0-|
B|--1-0-0-1-0----|
G|-2---2-2----2--|
D|---------------|
A|---------------|
E|---------------|

Bridge 3

Guitar 3 (bass for guitar)
e|------------------|
B|------------------|
G|------------------|
D|------------------| repeat until "sit back"
A|-333333/8888888\--|
E|------------------|

Intro til chorus

chorus

ending

GUitar 1
e|------------|
B|------------|
G|-55-555-5---|
D|-55-555-5---|
A|-33-333-3---|
E|------3-3---|

Guitar 2
e|-7~~~~~~~(bend up and down)-|
B|----------------------------|
G|----------------------------|
D|----------------------------|
A|----------------------------|
E|----------------------------|

then

Guitar 1
e|------------------------------------------------------------|
B|-4(1)~~(0)(bend note from one step up)----------------------|
G|------------------------------------------------------------|
D|---------------------------------------9/101010101010101010\|
A|---------------------------------------9/101010101010101010\|
E|---------------------------------------9/101010101010101010\|










Tap to rate this tab
# A B C D E F G H I J K L M N O P Q R S T U V W X Y Z