Song name
# A B C D E F G H I J K L M N O P Q R S T U V W X Y Z

The Atlantics - In The Shadows tab

In The Shadows
The Atlantics


Intro
                     A               F       E         A               F      E
E-|----------17-19-|-17-------------|----------------|----------------|---------------|
B-|-------17-------|----------------|----------10-12-|-10-------------|---------------|
G-|----------------|----------------|--------9-------|----------------|-----------2-4-|
D-|----------------|----------------|----------------|----------------|---------2-----|
A-|----------------|----------------|----------------|----------------|---------------|
E-|----------------|----------------|----------------|----------------|---------------|

     A              F       E         A               E7               A
E-|----------------|----------------|----------------|----------------|---------------|
B-|----------------|----------------|----------------|------------3---|-2-------------|
G-|--2-------------|----------------|----------------|---------2------|------2--2-----|
D-|----------------|----------------|----------------|------2---------|---------------|
A-|----------------|------------0-2-|-0--------------|----------------|---------------|
E-|----------------|----------0-----|----------------|----------------|---------------|

   D                A                D                A                D
E-|----------------|----------------|----------------|----------------|---------------|
B-|----------------|----------------|------------3---|-2--------------|---------------|
G-|------1--2------|----------------|---------2------|------2--2------|-----1--2--6---|
D-|------------4---|-2--------------|------2---------|----------------|---------------|
A-|----------------|----------------|----------------|----------------|---------------|
E-|----------------|----------------|----------------|----------------|---------------|

   G                E                C                                    F
E-|----------------|----------------|----------------|----------------|---------------|
B-|----------------|----------------|---5--3---------|-----------3-5--|---6-----------|
G-|-4--------------|----------------|---------5------|-5-5--4-5-------|-------7-5-----|
D-|----------------|----------------|-------------5--|----------------|-------------7-|
A-|----------------|----------------|----------------|----------------|---------------|
E-|----------------|----------------|----------------|----------------|---------------|

   D                A                E                A
E-|----------------|----------------|----------------|----------------|
B-|-----------5-7--|----------------|----------------|----------------|Repeat this 
G-|-7-7--6-7-------|-------9--9-----|------6-7-------|----------------| verse section 
D-|----------------|--7-------------|------------9---|-----7----------| from the E7 
A-|----------------|----------------|----------------|----------------| chord (9th bar)
E-|----------------|----------------|----------------|----------------|



     D              E                A                A7               D
E-|---14-12--------|----12----------|-12------12-----|----------------|--14-12--------|
B-|---------15-----|-12---------15--|------15-----15-|-14-------------|--------15-----|
G-|-------------14-|----------------|----------------|----------------|------------14-|
D-|----------------|----------------|----------------|----------------|---------------|
A-|----------------|----------------|----------------|----------------|---------------|
E-|----------------|----------------|----------------|----------------|---------------|

    B                  E                               A               D               
E-|-----11---------|---12------12---|-12-------------|----------------|---------------|
B-|-12---------12--|--------12------|----------------|----------------|---------------|
G-|----------------|----------------|----------------|----------------|---------------|
D-|----------------|----------------|-------------0--|----------------|---------------|
A-|----------------|----------------|----------0-----|-4----0--0------|---------0-----|
E-|----------------|----------------|-------0--------|----------------|-------4----2--|


   A                    D            A                D                G
E-|----------------|----------------|----------------|----------------|---------------|
B-|----------------|----------------|----------------|----------------|---------------|
G-|----------------|----------------|----------------|----------------|---------------|
D-|----------------|-------------0--|----------------|----------------|---------------|
A-|0---------------|----------0-----|-4----0--0------|----------0--4--|-2-------------|
E-|----------------|-------0--------|----------------|--------4-------|---------------|
   E                   C                              F                D
E-|----------------|----------------|----------------|----------------|---------------|
B-|----------------|----------------|----------------|----------------|---------------|
G-|----------------|----------------|----------------|----------------|---------------|
D-|----------------|-----2--0-------|------------0-2-|-----3--0-------|-0-0-------2-4-|
A-|----------------|-----------3----|-3-3--2-3-------|-----------3--0-|------4-0------|
E-|----------------|--------------3-|----------------|----------------|---------------|
   A                 E               A                F     E          A
E-|----------------|----------------|----------------|----------------|---------------|
B-|----------------|----------------|----------------|----------------|---------------|
G-|----------------|----------------|----------------|----------------|---------------|
D-|----------------|----------------|----------------|----------------|---------------|
A-|-0-----7--7-----|-------4--5--2--|-0--------------|------------0-2-|-0-------------|
E-|----------------|----------------|----------------|----------0-----|---------------|
   F     E          A                F    E           A           
E-|----------------|----------------|----------------|----------------|---------------|
B-|----------------|----------------|----------10-12-|-10-------------|---------------|
G-|------------2-4-|-2--------------|--------9-------|----------------|---------------|
D-|----------2-----|----------------|----------------|----------------|---------------|
A-|----------------|----------------|----------------|----------------|---------------|
E-|----------------|----------------|----------------|----------------|---------------|
     D              E                A                A7               D
E-|---14-12--------|----12----------|-12------12-----|----------------|--14-12--------|
B-|---------15-----|-12---------15--|------15-----15-|-14-------------|--------15-----|
G-|-------------14-|----------------|----------------|----------------|------------14-|
D-|----------------|----------------|----------------|----------------|---------------|
A-|----------------|----------------|----------------|----------------|---------------|
E-|----------------|----------------|----------------|----------------|---------------|
    B                  E                               
E-|-----11---------|---12------12---|-12-------------|
B-|-12---------12--|--------12------|-------------3--|Repeat the verse section
G-|----------------|----------------|----------2-----| once more from the A chord
D-|----------------|----------------|-------2--------| (10th bar - 24th bar)
A-|----------------|----------------|----------------|
E-|----------------|----------------|----------------|
 

         A         E                A                E7               A
E-|----------------|----------------|----------------|----------------|---------------|
B-|----------------|----------------|----------------|----------------|---------------|
G-|-----------9-9--|--------6-7-----|-----------9-9--|----------------|---------------|
D-|--------7-------|-------------9--|--------7-------|----------------|---------------|
A-|----------------|----------------|----------------|------------0-2-|-0-------------|
E-|----------------|----------------|----------------|----------0-----|---------------|
   F     E          A                F     E          A                F    E
E-|----------------|----------------|----------------|----------------|---------17-19-|
B-|----------------|----------------|----------10-12-|-10-------------|------17-------|
G-|------------2-4-|-2--------------|--------9-------|----------------|---------------|
D-|----------2-----|----------------|----------------|----------------|---------------|
A-|----------------|----------------|----------------|----------------|---------------|
E-|----------------|----------------|----------------|----------------|---------------|
   A                 F      E         A                
E-|-17-------------|-17-----16------|----------------|
B-|----------------|----------------|-17-------------|
G-|----------------|----------------|----------------| 
D-|----------------|----------------|----------------| 
A-|----------------|----------------|----------------|
E-|----------------|----------------|----------------|
Tap to rate this tab
 
# A B C D E F G H I J K L M N O P Q R S T U V W X Y Z