Song name
# A B C D E F G H I J K L M N O P Q R S T U V W X Y Z

The Autumn Offering - The Final Cut tab

THE AUTUMN OFFERING 
THE FINAL CUT
CGCFAD

TABBED BY andherembrace


---------0--------------5----8----------------5-----------|
-----6-------6-------------------6--------6-------6-------|
---7---7---7---7------7---7----7---7----7---7---7---7-----|
--------------------------------------8-------------------|
-------------------5--------------------------------------|
-0--------------------------------------------------------|


---------0--------------|
-----6-------6----------|
---7---7---7---7--------|
-5----------------------|
------------------------|
------------------------|


-------------------------------------------------|
-------------------------------------------------|
-------------------------9-----------------------|
------------7-----10-9---7---8---------10---5----|
--0---------5------8-7---7---8---------10---5----|
-(0)-swell---------------7---8---------10---5----|


-----------------------------------------|
-----------------------------------------|
-----------------9-----------------------|
----7-----10-9---7---8---------10---5----|
----5------8-7---7---8---------10---5----|
-----------------7---8---------10---5----|

-----------------------------------------|
-----------------------------------------|
-----------------9-----------------------|
----7-----10-9---7---8---------10---5----|
----5------8-7---7---8---------10---5----|
-----------------7---8---------10---5----|

-----------------------------------------|
-----------------------------------------|
-----------------9-----------------------|
----7-----10-9---7---8---------10---5----|
----5------8-7---7---8---------10---5----|
-----------------7---8---------10---5----|

------------------------------------------------------------|
------------------------------------------------------------|
------------------------------------------------------------|
----7-77777-1010-9-999-7---7---8---------10--------5--------|
----5-55555--8-8-7-777-7-7-7-7-8-8888888-10-101010-5-555----|
-----------------------7-7-7-7-8-8888888-10-101010-5-555----|
-     *****    *   ***   *   *   *******    *  * *   ***

------------------------------------------------------------|
------------------------------------------------------------|
------------------------------------------------------------|
----7-77777-1010-9-999-7---7---8---------10--------5--------|
----5-55555--8-8-7-777-7-7-7-7-8-8888888-10-101010-5-555----|
-----------------------7-7-7-7-8-8888888-10-101010-5-555----|
-     *****    *   ***   *   *   *******    *  * *   ***

------------------------------------------------------------|
------------------------------------------------------------|
------------------------------------------------------------|
----7-77777-1010-9-999-7---7---8---------10--------5--------|
----5-55555--8-8-7-777-7-7-7-7-8-8888888-10-101010-5-555----|
-----------------------7-7-7-7-8-8888888-10-101010-5-555----|
-     *****    *   ***   *   *   *******    *  * *   ***

------------------------------------------------------------|
------------------------------------------------------------|
------------------------------------------------------------|
----7-77777-1010-9-999-7---7---8---------10--------5--------|
----5-55555--8-8-7-777-7-7-7-7-8-8888888-10-101010-5-555--0-|
-----------------------7-7-7-7-8-8888888-10-101010-5-555--0|
-     *****    *   ***   *   *   *******    *  * *   ***
Tap to rate this tab
 
# A B C D E F G H I J K L M N O P Q R S T U V W X Y Z