Guitaretab - guitar tabs
Song name
# A B C D E F G H I J K L M N O P Q R S T U V W X Y Z

The Beautiful Girls - Water tab

Tabbed by Ryan anderson
This is an improvemnt on my last tab of this song as the other one was just for mucking 
with mates this one is how its really played.

Tuning:one Whole step down(DGCFAd)

Intro:                                 Repeat From Here
D-----------------------------------------------I--------------I------|
A-----------------------------------------------I---1st time---I-2nd--|
F-----6h7p6-------------------------------------I--------------I------|
C----7------7------------5h7p5------------------I--------------I------|
G---7---------7---3--5s7--------7-5--------2h4p2I------------3-I------|
D--5---------------------------------3-3-5------I-5-3-5-5-5-5--I5-3-5-|

Verse
D--------------------------------------------------------------------|
A--------------------------------------------------------------------|
F--------------------------------------------------------------------|
C-----7-777-7-------555-5-------3-333-3------------------------------|
G-----7-777-7-------555-5-------3-333-3---0-1s5-5p3------3h4h5-------|
D-5-5-5-555-5-4-3-3-333-3-2-1-1-1-111-1-------------3h4h5------------|

Chorus
D--------------------------------------------------------------------|
A--------------------------------------------------------------------|
F--------------------------77777777----------------------------------|
C----7--------5--------3---77777777----------------------------------|
G----7--------5--------3---55555555----------------------------------|
D-s5-5-5-4-33-3-3-2-11-1---------------------------------------------|
[ Tab from: http://www.guitaretab.com/t/the-beautiful-girls/137346.html ]
Solo
D-------7-5-5-3-0-3-0h3p0------7-5-5-3-0-----------------------------|
A-------5-5-3-3-1---------1----5-5-3-3-1-----------------------------|
F----------------------------------------5-4h5p4-2-------------------|
C--2s7----------------------2s7--------------------------------------|
G--------------------------------------------------------------------|
D--------------------------------------------------------------------|

D------5-5-5-3-0-3-0h3p0-------5-5-5-3-3-0----------5--------8-------|
A------7-5-3-3-1---------1-----7-5-3-3-1-1-----3s555-5--5s888-8------|
F--------------------------------------------------------------------|
C-2s7----------------------2s7---------------------------------------|
G--------------------------------------------------------------------|
D--------------------------------------------------------------------|

D----------10-8h10--------I---1st Time--I-2nd time--------------------|
A--8s101010-------10p8----I-------------I--13b15r13-13-1313-17-13-----|
F----------------------9p7I5-7b-5-5575--I-------------------------14--|
C-------------------------I-----------7-I-----------------------------|
G-------------------------I-------------I-----------------------------|
D-------------------------I-------------I-----------------------------|

Or for those with out a cutaway
D---8b10r8-8-88-12-8-------------------------------------------------|
A--------------------10----------------------------------------------|
F--------------------------------------------------------------------|
C--------------------------------------------------------------------|
G--------------------------------------------------------------------|
D--------------------------------------------------------------------|


Thats almost 100%
Related for Water tab
×
Water