Song name
# A B C D E F G H I J K L M N O P Q R S T U V W X Y Z

The Cribs - Moving Pictures tab

Help us improve GuitareTab! Take a short survey!
Tabbed by: Ben Wright

Standard tuning EADGBe

Any feedback appreciated, either leave a comment or email friskyfleabag@aol.com


Intro:

e|----4-4---5-5---4-4---7-7---4-4---5-5---7-7---4-4--------------------------|
B|----5-5---5-5---5-5---5-5---5-5---5-5---5-5---2-2--------------------------|
G|---------------------------------------------------------------------------|
D|---------------------------------------------------------------------------|
A|---------------------------------------------------------------------------|
E|---------------------------------------------------------------------------|


e|-4-4-x-x-5-5-x-x-4-4-x-x-7-7-x-x-4-4-x-x-5-5-x-x-7-7-x-x-4-4-x-0-----------|
B|-5-5-x-x-5-5-x-x-5-5-x-x-5-5-x-x-5-5-x-x-5-5-x-x-5-5-x-x-2-2-x-5-----------|
G|---------------------------------------------------------------------------|
D|---------------------------------------------------------------------------|
A|---------------------------------------------------------------------------|
E|---------------------------------------------------------------------------|

"You'll sleep tonight" (0:15)

e|-4-4-4-5-5-4------------------4-4-4-5-5-4----------------------------------|
B|-5-5-5-5-5-5------------------5-5-5-5-5-5----------------------------------|
G|---------------------------------------------------------------------------|
D|---------------------------------------------------------------------------|
A|---------------------------------------------------------------------------|
E|-------------4444444444444444-------------22222222224444222----------------|


"It's alright" (0:23)

e|-4-4-4-5-5-4-------------------4-4-4-7-7-7-7-------------------------------|
B|-5-5-5-5-5-5-------------------5-5-5-5-5-5-5-------------------------------|
G|---------------------------------------------------------------------------|
D|---------------------------------------------------------------------------|
A|---------------------------------------------------------------------------|
E|-------------22222222224444222---------------7777777777777777--------------|


"They did not come true (0:31)

e|-4-4-4-5-5-4------------------4-4-4-5-5-4----------------------------------|
B|-5-5-5-5-5-5------------------5-5-5-5-5-5----------------------------------|
G|---------------------------------------------------------------------------|
D|---------------------------------------------------------------------------|
A|---------------------------------------------------------------------------|
E|-------------4444444444444444-------------22222222224444222----------------|

"It's alright" (0:38)

e|-4-4-4-5-5-4-------------------4-4-4-7-7-7-7-------------------------------|
B|-5-5-5-5-5-5-------------------5-5-5-5-5-5-5-------------------------------|
G|---------------------------------------------------------------------------|
D|---------------------------------------------------------------------------|
A|---------------------------------------------------------------------------|
E|-------------22222222224444222---------------15//////////////--------------|


Chorus (same as intro):

"Fakes, liar and stars" (0:46)

e|-4-4-x-x-5-5-x-x-4-4-x-x-7-7-x-x-4-4-x-x-5-5-x-x-7-7-x-x-4-4-x-0-----------|
B|-5-5-x-x-5-5-x-x-5-5-x-x-5-5-x-x-5-5-x-x-5-5-x-x-5-5-x-x-2-2-x-5-----------|
G|---------------------------------------------------------------------------|
D|---------------------------------------------------------------------------| x2
A|---------------------------------------------------------------------------|
E|---------------------------------------------------------------------------|


End of chorus (1:02):

e|------4-4-4-4-4-4-4-----4-4-4-4-4-4-4--------------------------------------|
B|------5-5-5-5-5-5-5-----5-5-5-5-5-5-5--------------------------------------|
G|---------------------------------------------------------------------------|
D|---------------------------------------------------------------------------|
A|---------------------------------------------------------------------------|
E|---------------------------------------------------------------------------|



2nd verse is exactly the same as the first one, and is followed again by the chorus.


Bridge (1:52):

e|------44444--44444--44444--44444-------------------------------|
B|------55555--55555--55555--55555-------------------------------|
G|------44444--44444--44444--44444-------------------------------| 
D|---------------------------------------------------------------|   x2
A|---------------------------------------------------------------|
E|---------------------------------------------------------------|




"Guarded thoughts" (2:00)

e|------44444--44444--44444--44444--44444--44444--22222--22222---------------|
B|------55555--55555--44444--44444--55555--55555--44444--44444---------------|
G|------44444--44444--44444--44444--44444--44444--44444--44444---------------|
D|---------------------------------------------------------------------------|  x2
A|---------------------------------------------------------------------------|
E|---------------------------------------------------------------------------|


Then at (2:14) it goes back to 

e|------44444--44444--44444--44444-------------------------------|
B|------55555--55555--55555--55555-------------------------------|
G|------44444--44444--44444--44444-------------------------------| 
D|---------------------------------------------------------------|   x2
A|---------------------------------------------------------------|
E|---------------------------------------------------------------|



Followed by the chorus repeated until the song ends on the above chord.


That's it, any feedback appreciated :o)
Related for Moving Pictures tab