Song name
# A B C D E F G H I J K L M N O P Q R S T U V W X Y Z

The Cribs - Uptight tab

|---------------------------------------------------------------------------8-----------11----|
|---------------------------------------------------------8------9p8-----------9p8---------9--|
|----------------------------------------/10--9------/10----10--------10----------------------|
|--10--10-10-10--13---------------------------------------------------------------------------|
|--------------------------10--11-------------------------------------------------------------|
|---------------------------------------------------------------------------------------------|


|-------------------------------------------------------------------------|
|--------------------13b15-----------------------------------13b15--------|
|--12b13r12--10------------------10-12---12b13r12p10----------------10\8--|
|-------------------------------------------------------------------------|
|-------------------------------------------------------------------------|
|-------------------------------------------------------------------------|

|------------------------------------------------------------------------|
|------------------------------------------------------------------------|
|----//13--1313----------------------------------------------------------|
|----------------------13--1313------------------------------------------|
|---------------------------------------15--1515-------------------------|
|-------------------------------------------------------16--1616---------|

|-----------------------------------------------------------------------|
|-----------------------------------------------------------------------|
|-----------------------------------------------------------------------|
|-----------------------------------------------------------------------|
|----------------15-13------------6--666\\\\----------------------------|
|--15--1515----------------4--------------------------------------------|
Tap to rate this tab
# A B C D E F G H I J K L M N O P Q R S T U V W X Y Z