Song name
# A B C D E F G H I J K L M N O P Q R S T U V W X Y Z

The Dead Formats - Again And Again tab

Hey guys, you may not know this band but i advise you to listen to them, there awesome.
Anyways this is proberbly there best song.
Standard tuneing(E-A-D-G-B-e)
Simple once you get your head around the riff.

Intro main riff(this is used pretty much all of the song)

e(-------------------------)
B(-------------------------)
G(-------------------------)
D(-6-888-------6-888-------)
A(-4-666-8-8-8-4-666-8-8-8-)
E(-------6-6-6-------6-6-6-)

e(---------------------------)
B(---------------------------)
G(---------------------------)
D(-6-6-6-6-6-6-6-6-------8-6-)
A(-4-4-4-4-4-4-4-4-6-6-6-6-4-)
E(-----------------4-4-4-----)

repeat until the little thing were it stops, i advise you to listen to this to get 
the rythem correct, thank you
Tap to rate this tab
# A B C D E F G H I J K L M N O P Q R S T U V W X Y Z