Song name
# A B C D E F G H I J K L M N O P Q R S T U V W X Y Z

The Dead Formats - Step It Up tab

Hey theres just pretty much and intro to this... so yeah really really easy...
Standard Tuning(E-A-D-G-B-e)
My fifth "The Dead Formats" song
"Step it up"

Guitar 1/Intro
e[------7777------77-777]
B[-55/7-7777-55/7-77-777]
G[-55/7------55/7-------]
D[----------------------]
A[----------------------]
E[----------------------]

Guitar 2/ Intro
e[----------]
B[-5-5-5-5--]
G[-5-5-5-5--]
D[----------]
A[----------]
E[----------](This guitar just keeps the beast of the song)

Thnx Please rate
Tap to rate this tab
 
# A B C D E F G H I J K L M N O P Q R S T U V W X Y Z