Song name
# A B C D E F G H I J K L M N O P Q R S T U V W X Y Z

The Dead Formats - Wind Up tab

Hey another tab for The Dead Formats,
kinda the same as the others really.

Standard tuneing(E-A-D-G-B-e)

Intro(clean)
e(--------------------------------)
B(--------------------------------)
G(--------------------------------)
D(-7-7-7-10-10-10-5-5-5-5-5-5-3-3-)
A(-5-5-5-8--8--8--3-3-3-3-3-3-1-1-)
E(--------------------------------)


(Put on distortion)
e(--------------------------------)
B(--------------------------------)
G(--------------------------------)
D(-7-7-7-10-10-10-5-5-5-5-5-5-3-3-)
A(-5-5-5-8--8--8--3-3-3-3-3-3-1-1-)
E(--------------------------------)

Thats pretty much it, i advise to listen to the song for the correct timeing and stuff, 
yeah just simple.
Tap to rate this tab
 
# A B C D E F G H I J K L M N O P Q R S T U V W X Y Z