Song name
# A B C D E F G H I J K L M N O P Q R S T U V W X Y Z

The Devil Wears Prada - Rumors tab

-------------------------------------------------------------------------------
                             The Devil Wears Prada - Rumors
-------------------------------------------------------------------------------
Tabbed by: Ministry555
E-mail: byobgaming@live.de

Tuning: Drop A

For Corrections leave a comment

Intro: 
4 times          !                                 4th time play till ! and end with
e|--------------------------------------------------|----------------|
B|--------------------------------------------------|----------------|
G|--------------------------------------------------|----------------|
D|--------------------------------------------------|----7------5----|
A|0000000000000000-0-0-0-0-0-0-0-0-0-0-0-0-0-0-0-0--|--8---8--7---7--|
E|0000000000000000-0-0-0-0-0-0-0-0-0-0-0-0-0-0-0-0--|----------------|


e|----------------------------------------------------|
B|----------------------------------------------------|
G|----------------------------------------------------|
D|-12-12-12------5-5-5-8-8-8-12-12-12-----5-5-5-4-4---|
A|-12-12-12-0-0--5-5-5-8-8-8-12-12-12-0-0-5-5-5-4-4---|
E|-12-12-12-0-0--5-5-5-8-8-8-12-12-12-0-0-5-5-5-4-4---|

e|-------------------------------------------------------------------|
B|-------------------------------------------------------------------|
G|-------------------------------------------------------------------|
D|-12-12-12------5-5-5-8-8-8-----1-1-1-1-----44-44-44---8--0-------0-|
A|-12-12-12-0-0--5-5-5-8-8-8-0-0-1-1-1-1-0-0-44-44-44-0-8--0---8*--0-|
E|-12-12-12-0-0--5-5-5-8-8-8-0-0-1-1-1-1-0-0-44-44-44-0-8--0-------0-|

e|--------------------------------------------------|
B|--------------------------------------------------|
G|--------------------------------------------------|
D|-----------------1--0-----------------------------|
A|-0-0-0-0-0-0-0-0-1--0-------0--0-0-0-0-0-0-0-0----|
E|-0-0-0-0-0-0-0-0-1--0---8*--0--0-0-0-0-0-0-0-0----|


Chorus
you were the one
e|-----------------------------------------------------------------------|
B|-----------------------------------------------------------------------|
G|-----------------------------------------------------------------------|
D|-----------------------------------------------------------------------|
A|-5-5-5--5-5-5-5--5--5-5-5-5--0-0-0--0-0-0-0----------------------------|
E|-5-5-5--5-5-5-5--5--5-5-5-5--0-0-0--0-0-0-0--0-0-0--0-0-10-0-10s13-----|

another day dies
e|-------------|
B|-------------|
G|-------------|
D|-5-5--5-0----|
A|-5-5--5-0----|
E|-5-5--5-0----|

2x
e|---------------------------------------------------------------------------|
B|---------------------------------------------------------------------------|
G|-----7-7-----------------------------------7-7-----------------------------|
D|----------8-8-7-7-8-8-7-7-7-7------------------8-8-7-7-8-8-7-7-7-7--1-1-1--|
A|-5-5--------------------------9-9-9-9--5-5--------------------------1-1-1--|
E|--------------------------------------------------------------------1-1-1--|

e|-----------------------------------------------------------------------|
B|------------------------------------------------------6--------5-------|
G|----------------------------------------------------7---7----6---6-----|
D|---------9s12-8s7-8p7--7---7----------9s12s8s7-8--0--------0-----------|
A|-------6-------------8---5---5-----------------------------------------|
E|---0-0--------------------------0-0-0----------------------------------|

Chorus
you were the one
e|-----------------------------------------------------------------------|
B|-----------------------------------------------------------------------|
G|-----------------------------------------------------------------------|
D|-----------------------------------------------------------------------|
A|-5-5-5--5-5-5-5--5--5-5-5-5--0-0-0--0-0-0-0----------------------------|
E|-5-5-5--5-5-5-5--5--5-5-5-5--0-0-0--0-0-0-0--0-0-0--0-0-10-0-10s13-----|

another day dies
e|-------------|---15--13--12--13-
B|-------------|-15--15--15--15---
G|-------------|------------------
D|-5-5--5-0----|------------------
A|-5-5--5-0----|------------------
E|-5-5--5-0----|------------------

e|----------------------------------------------------|
B|----------------------------------------------------|
G|----------------------------------------------------|
D|-12-12-12------5-5-5-8-8-8-12-12-12-----5-5-5-4-4---|
A|-12-12-12-0-0--5-5-5-8-8-8-12-12-12-0-0-5-5-5-4-4---|
E|-12-12-12-0-0--5-5-5-8-8-8-12-12-12-0-0-5-5-5-4-4---|

e|-------------------------------------------------------------------|
B|-------------------------------------------------------------------|
G|-------------------------------------------------------------------|
D|-12-12-12------5-5-5-8-8-8-----1-1-1-1-----44-44-44---8--0-------0-|
A|-12-12-12-0-0--5-5-5-8-8-8-0-0-1-1-1-1-0-0-44-44-44-0-8--0---8*--0-|
E|-12-12-12-0-0--5-5-5-8-8-8-0-0-1-1-1-1-0-0-44-44-44-0-8--0-------0-|


e|--------------------------------------------------|
B|--------------------------------------------------|
G|--------------------------------------------------|
D|-----------------1--0-----------------------------|
A|-0-0-0-0-0-0-0-0-1--0-------0--0-0-0-0-0-0-0-0----|
E|-0-0-0-0-0-0-0-0-1--0---8*--0--0-0-0-0-0-0-0-0----|

e|--------------------------------------------------|
B|--------------------------------------------------|
G|--------------------------------------------------|
D|--------------------------------------------------|
A|0000000000000000-0-0-0-0-0-0-0-0-0-0-0-0-0-0-0-0--|
E|0000000000000000-0-0-0-0-0-0-0-0-0-0-0-0-0-0-0-0--|

************************************

| /   slide up
| \   slide down
| h   hammer-on
| p   pull-off
| ~   vibrato
| +   harmonic
| x   Mute note
| b   Bend
| pb  Pre-bend
| br  Bend release
| pbr Pre-bend release
| brb Bend release bend

************************************
Tap to rate this tab
# A B C D E F G H I J K L M N O P Q R S T U V W X Y Z