Song name
# A B C D E F G H I J K L M N O P Q R S T U V W X Y Z

The Drums - I Need A Doctor tab

Rhythm Guitar

e|---------------------------------|------------------------------|
B|---------------------------------|------------------------------|
G|---------------------------------|------------------------------|
D|-----------0----------0----------|---------0---------------0---0|
A|---0---0-------0---------------0-h/2---2-----------0-h/2--------|
E|---------------------------------|------------------------------|
     1   &   2   &   3   &   4   &   1   &   2   &   3   &   4   &
e|---------------------------------|------------------------------|
B|---------------------------------|------------------------------|
G|---------------------------------|------------------------------|
D|-----------0-----------0---------|---------0---------------0---0|
A|---0-----------0---0-----------0-h/2-- 2-----------2---2--------|
E|---------------------------------|------------------------------|  Repeat
     1   &   2   &   3   &   4   &   1   &   2   &   3   &   4   &



Lead Guitar

Verse:
e|---------------------------------|------------------------------|
B|---------------------- 2---------|-------------------------2----|
G|---------------2-----------------|-----------------2------------|
D|-----------2---------------------|---------2--------------------|
A|---------------------------------|------------------------------|
E|---------------------------------|------------------------------|  Repeat
     1   &   2   &   3   &   4   &   1   &   2   &   3   &   4   &

Chorus
e|---------------------------------|------------------------------|
B|----------------------10---------|10----------------------------|
G|---9---9---9---9---9-------------|---------11-------------------|
D|---------------------------------|------------------------------|
A|---------------------------------|------------------------------|
E|---------------------------------|------------------------------|
     1   &   2   &   3   &   4   &   1   &   2   &   3   &   4   &

e|---------------------------------|------------------------------|
B|----------------------10---------|10----------------------------|
G|---9---9---9---9---9-------------|---------11-------------------|
D|---------------------------------|------------------------------|
A|---------------------------------|------------------------------|
E|---------------------------------|------------------------------|
     1   &   2   &   3   &   4   &   1   &   2   &   3   &   4   &

e|---------------------------------|---------9--------------------|
B|----------------------10---------|10----------------------------|
G|---9---9---9---9---9-------------|------------------------------|
D|---------------------------------|------------------------------|
A|---------------------------------|------------------------------|
E|---------------------------------|------------------------------|
     1   &   2   &   3   &   4   &   1   &   2   &   3   &   4   &

e|---------------------------------|---------9--------------------|
B|----------------------10---------|10----------------------------|
G|---9---9---9---9---9-------------|------------------------------|
D|---------------------------------|------------------------------|
A|---------------------------------|------------------------------|
E|---------------------------------|------------------------------|   Repeat
     1   &   2   &   3   &   4   &   1   &   2   &   3   &   4   &


Solo:
e|---------------------------------|------------------------------|
B|--14--14--14--14--14--14--14--14-|14b-------------------------14|
G|---------------------------------|------------------------------|
D|---------------------------------|------------------------------|
A|---------------------------------|------------------------------|
E|---------------------------------|------------------------------|
     1   &   2   &   3   &   4   &   1   &   2   &   3   &   4   &

e|---------------------------------|------------------------------|
B|--14--14--14--14--14--14--14--14-|12----------------------------|
G|---------------------------------|------------------------------|
D|---------------------------------|------------------------------|
A|---------------------------------|------------------------------|
E|---------------------------------|------------------------------|  Repeat
     1   &   2   &   3   &   4   &   1   &   2   &   3   &   4   &
Tap to rate this tab
# A B C D E F G H I J K L M N O P Q R S T U V W X Y Z