The Expendables - Burning Up tab

-----------------------------------------------------------------
Full Version (Burnin Up)- The Expendables
-----------------------------------------------------------------
Tabbed by: Brian Zucker
Email: bnzucker@comcast.net
Tuning: Standard
e|---------------------------------------------------------------|
B|---------------------------------------------------------------|
G|--6------------------------------------------------------------|
D|--6--let ring--------------------------------------------------|
A|--4------------------------------------------------------------|
E|---------------------------------------------------------------|

e|---------------------------------------------------------------|
B|---------------------------------------------------------------|
G|--9-9-6------2------4------------------------------------------|
D|--9-9-6------2------4------------------------------------------|
A|--7-7-4------0------2------------------------------------------|
E|---------------------------------------------------------------|

e|---------------------------------------------------------------|
B|---------------------------------------------------------------|
G|---------------------------------------------------------------|
D|--**6-**6-**6-**6-**6s2-**2-**2-**-**4-**4-**------------------|
A|--44--44--44--44--44----00--00--00-22--22--22------------------|
E|---------------------------------------------------------------|x5

e|---------------------------------------------------------------|
B|---------------------------------------------------------------|
G|---------------------------------------------------------------|
D|--**6-**6-**6-**6-**6s2-**2-**2-**-**4---2h4p2p0---------------|
A|--44--44--44--44--44----00--00--00-00--00----------------------|
E|---------------------------------------------------------------|

e|---------------------------------------------------------------|
B|---------------------------------------------------------------|
G|---------------------------------------------------------------|
D|--**---**---**---**------**---**---**---**---**----------------|
A|--44-7-44-6-44-7-44-4s0--00-7-00-6-00-9-00-7-00-6s7------------|
E|---------------------------------------------------------------|x5

e|---------------------------------------------------------------|
B|---------------------------------------------------------------|
G|---------------------------------------------------------------|
D|--**---**---**---**---------------9-11-------------------------|
A|--44-7-44-6-44-7-44-4s0--s7-6-7-9------------------------------|
E|---------------------------------------------------------------|

e|---------------------------------------------------------------|
B|---------------------------------------------------------------|
G|--------6---------6---------2---------4------------------------|
D|--*-*-*-6---*-*-*-6---*-*-*-2---*-*-*-4------------------------|
A|--4-4-4-4---4-4-4-4---0-0-0-0---2-2-2-2------------------------|
E|---------------------------------------------------------------|x4



e|---------------------------------------------------------------|
B|---------------------------------------------------------------|
G|--6----------------2--------2----------------------------------|
D|--6----------------2--------2----------------------------------|
A|--4----------------0--------4----------------------------------|fast
E|---------------------------------------------------------------|strum x4

e|---------------------------------------------------------------|
B|---------------------------------------------------------------|
G|--6--6--6--6--2--2--4--4---------------------------------------|
D|--6--6--6--6--2--2--4--4---------------------------------------|strum on 
A|--4--4--4--4--0--0--2--2---------------------------------------|off beat
E|---------------------------------------------------------------|x4

Anyone got the solo??

| *  palm mute
| /  slide up
| \  slide down
| h  hammer-on
| p  pull-off
| ~  vibrato
| +  harmonic
| x  Mute note
Tap to rate this tab
 
# A B C D E F G H I J K L M N O P Q R S T U V W X Y Z