Song name
# A B C D E F G H I J K L M N O P Q R S T U V W X Y Z

The Forces Of Evil - Mistake tab

Forces Of Evil - Mistake
Tabbed by: Nate Nepsky (theamazingzoob@yahoo.com)

Pre Verses

   E----------------------------------------------------------------------|
   B----------------------------------------------------------------------|
   G----------------------------------------------------------------------|
   D--9-9-9-9--7--5-5-5-5--7--------9-9-9-9--7--5-5-5-5--4-4-4-4--7-7-7-7-|
   A--9-9-9-9--7--5-5-5-5--7-x16----9-9-9-9--7--5-5-5-5--4-4-4-4--7-7-7-7-|
   E--7-7-7-7--5--3-3-3-3--5--------7-7-7-7--5--3-3-3-3--2-2-2-2--5-5-5-5-|
                        pm....

Verses (ska)
--7x7x7x7--3x3x3x3--5x5x5x5x5x5x5x5---7x7x7x7--3x3x3x3--2x2x2x2--3x3x--5x5x--|
--7x7x7x7--3x3x3x3--5x5x5x5x5x5x5x5---7x7x7x7--3x3x3x3--2x2x2x2--3x3x--5x5x--|
--7x7x7x7--4x4x4x4--6x6x6x6x6x6x6x6---7x7x7x7--4x4x4x4--3x3x3x3--4x4x--6x6x--|
-----------------------------------------------------------------------------|
-----------------------------------------------------------------------------|
-----------------------------------------------------------------------------|

Chorus (I think we made a mistake....) (PT)
E -------------------------------------------------------|
B -------------------------------------------------------|
G -7-7------------9-------------7-7----------------------|
D -7-7--10-10-10--9--5-5--7-7---7-7--10-10-10--8--8-8/10-|
A -5-5--10-10-10--7--5-5--7-7---5-5--10-10-10--8--8-8/10-|
E -------8--8--8-----3-3--5-5---------8--8--8--6--6-6/-8-|

Break (just noodle through the pre verse chords)
E ------------------------------------------------------|
B ------------------------------------------------------|
G ------------------------------------------------------|
D -9--7-7--5-5-5/7---7--7-7--2--4-4-4-4-----------------|
A -9--7-7--5-5-5/7---7--7-7--2--4-4-4-4-----------------|
E -7--5-5--3-3-3/5---9--5-5--0--2-2-2-2-----------------|

Build Up
E ------------------------------------------------------|
B ------------------------------------------------------|
G ------------------------------------------------------|
D -2-2-2-2--4-4-4-4--5-5-5-5--7-7-7-7-------------------|
A -2-2-2-2--4-4-4-4--5-5-5-5--7-7-7-7---x2--------------|
E -0-0-0-0--2-2-2-2--3-3-3-3--5-5-5-5-------------------|

great work amazing zoob (im not him/her)
Tap to rate this tab
# A B C D E F G H I J K L M N O P Q R S T U V W X Y Z