Song name
# A B C D E F G H I J K L M N O P Q R S T U V W X Y Z

The Forces Of Evil - Independent tab

Forces Of Evil - Independent
Tabbed By: Nate Nepsky (theamazingzoob@yahoo.com)

Intro
E --------------------------------------------------|
B --------------------------------------------------|
G ----------8-10-----8------10----------------------|
D --8-------8-10--8--8-rest-10----------------------|
A --8-hold--6--8--8--6-------8----------------------|
E --6-------------6---------------------------------|

Verses
E --6x6x6x6x6x6x6x6--6x6x6x6---8x-8x-8x-8-----------|
B --6x6x6x6x6x6x6x6--8x8x8x8--10x10x10x10-----------|
G --7x7x7x7x7x7x7x7--8x8x8x8--10x10x10x10-----------|
D --------------------------------------------------|
A --------------------------------------------------|
E --------------------------------------------------|

Pre Chorus (It's not that we dont know...)
E -----------------------------------------------------------------|
B -----------------------------------------------------------------|
G ----------------8------8------------------------10------10--10~~-|
D -5-5-5-5-5-5-5--8-hold-8-hold--5-5-5-5-5-5-5-5--10-hold-10-------|
A -5-5-5-5-5-5-5--6------6-------5-5-5-5-5-5-5-5---8-------8-------|
E -3-3-3-3-3-3-3-----------------3-3-3-3-3-3-3-3-------------------|

Chorus
E --------------------------------------------------|
B --------------------------------------------------|
G -------------------8-8-8-8--10-10-10-10-----------|
D --8-8-8-8-8-8-8-8--8-8-8-8--10-10-10-10-----------|
A --8-8-8-8-8-8-8-8--6-6-6-6---8--8--8--8-----------|
E --6-6-6-6-6-6-6-6---------------------------------|

Chorus end (after "I hate that stupid ho" when the horns come in)
E -----------6----------------------------------------|
B -----------7-hold-----------------------------------|
G -----------8----------------------------------------|
D --8-------------------------------------------------|
A --8-hold--------------------------------------------|
E --6-------------------------------------------------|

Break
E -x3x3--x2x2-/--6----6-----------------------------|
B -x3x3--x2x2-/--6-x8-8-x8--whole-thing-x2----------|
G -x4x4--x3x3-/--7----8-----------------------------|
D --------------------------------------------------|
A --------------------------------------------------|
E --------------------------------------------------|

Power chords
E ------------------------------------------------------------|
B ------------------------------------------------------------|
G -----------------------8------------------------------------|
D --5----4-----/--8------8-x8----5----4-----3-----------------|
A --5-x8-4-x8--/--8-x8---6-------5-x8-4-x8--3-x8--------------|
E --3----2-----/--6--------------3----2-----1-----------------|

Repeat chorus
Tap to rate this tab
 
# A B C D E F G H I J K L M N O P Q R S T U V W X Y Z