Song name
# A B C D E F G H I J K L M N O P Q R S T U V W X Y Z

The Forces Of Evil - Dance The Night Away tab

tabed by Robert A.  rockerrob69@yahoo.com
this is totally correct!

Intro:
------------------------------------------------|
----7-----8--7--5--3-3----7-----8--3--5---------|
----7-----7--7--6--4-4----7-----7--4--6---------|
----7--7--7--7--7--5-5----7--7--7--5--7---------|
-5----------------------------------------------|
------------------------------------------------|

Verse: ( listen for tempo / rythem )

--------------------------------|
-7-x-7-x-7-x-7--5-x-5-x-3-x-3---|
-7-x-7-x-7-x-7--6-x-6-x-4-x-4---|
-7-x-7-x-7-x-7--7-x-7-x-5-x-5---|
--------------------------------|
--------------------------------|


Pre Chorus: 'oh baby baby'                  'take a chance..'
--------------------------------            ---------------|
--x-7---x-7---x-5---x-3---------            ---------------|
--x-7---x-7---x-6---x-4---------            ---------------|
--x-7---x-7---x-7---x-5-do this 3 times then--5----7-------|
--------------------------------            --5----7-------|
--------------------------------            --3----5-------|

Chorus: Same as the verse

Bridge: 'woooooo, wo oh o oh'  Palm Mute E chord, then the G chord ( repeat once )

Last Chorus: 'lets dance' instead of the D A G chords, its E B A
Tap to rate this tab
# A B C D E F G H I J K L M N O P Q R S T U V W X Y Z