Song name
# A B C D E F G H I J K L M N O P Q R S T U V W X Y Z

The Fratellis - Ole Black N Blue Eyes tab

[Ole Black N Blue Eyes by The Fratellis]

Please listen to the rhythm of the solo so you can accurately play this
part.  This solo is divided into four parts. These parts are in order as
played on the track but it is up to you to use one, a few, or all parts and
rearrange them in any way you choose because they sound very similar.

(Note: this solo occurs at the end of the song, with about 45 seconds till
the end, and the song ends in a fade but you can end it in a strong chord
which is C in standard tuning.)

(Note: This solo is in standard tuning, being consistent to the tuning of
when The Fratellis play "live."  The recorded track is played in DAFCGD.)

(Note: You should never have to play this solo with four fingers, three is
the maximum.  Find the pattern and likeness in each part to make it easier
than it already is, thus the difficulty is Novice.)

(Last Note: In the original track, this solo is played as if capo-ed or barred on the 12th fret.)

{PART ONE}
e|----0------------------------------|
B|------1-----0-----1-3-1-3-1--------|
G|--------0-----0-------------0---0--|
D|--2-------2-------------------2----|
A|-----------------------------------|
E|-----------------------------------|

e|-----------------------------------|
B|------1---1------------------------|
G|----2-------0---0------------------|
D|--3-----------2---3---4---5-4-3-0--|
A|-----------------------------------|
E|-----------------------------------|

{PART TWO}
e|----0------------------------------|
B|------1-----0-----1-3-1-3-1--------|
G|--------0-----0-------------0---0--|
D|--2-------2-------------------2----|
A|-----------------------------------|
E|-----------------------------------|

e|-----------------------------------|
B|------1---1------------------------|
G|----2-------0---0---0---0----------|
D|--3-----------2---3---4---5-4-3-0--|
A|-----------------------------------|
E|-----------------------------------|

{PART THREE}
e|----0-------------------------0----|
B|------1-----0-----1-3-1-3-1-3------|
G|--------0-----0--------------------|
D|--2-------2------------------------|
A|-----------------------------------|
E|-----------------------------------|

e|-----------------------------------|
B|------1---1------------------------|
G|----2-------0---0---0---0-------0--|
D|--3-----------2---3---4---5---5----|
A|-----------------------------------|
E|-----------------------------------|

{PART FOUR, SAME AS PART TWO}
e|----0------------------------------|
B|------1-----0-----1-3-1-3-1--------|
G|--------0-----0-------------0---0--|
D|--2-------2-------------------2----|
A|-----------------------------------|
E|-----------------------------------|

e|-----------------------------------|
B|------1---1------------------------|
G|----2-------0---0---0---0----------|
D|--3-----------2---3---4---5-4-3-0--|
A|-----------------------------------|
E|-----------------------------------|

(Optional: End in C chord, standard tuning.)
Tap to rate this tab
 
# A B C D E F G H I J K L M N O P Q R S T U V W X Y Z