Song name
# A B C D E F G H I J K L M N O P Q R S T U V W X Y Z

The Front Bottoms - Maps tab

All of the credit goes to arunawayslave for this tap, I just corrected the chorus 
and added an easier (in my opinion) way to play the verse. Thanks all

The Front  Bottoms: "Maps"
Slow Dancing to Soft Rock EP
video: http://www.youtube.com/watch?v=KbT6qUpROnI
Questions: mswojnow@gmail.com
Tabbed by: arunawayslave/aukes57

E|--------------------------------------------------|
B|--------------------------------------------------|
G|--------------------------------------------------|
D|-12-12-12-12-12-12-12-12-x-x-10-10-10-10-10-10-10-|
A|-12-12-12-12-12-12-12-12-x-x-10-10-10-10-10-10-10-|
E|-10-10-10-10-10-10-10-10-x-x-8--8--8--8--8--8--8--|

Verse


Guitar
"There's a map in my room..."
E|---------|
B|---------|
G|---------|
D|---5---5-|
A|---------|
E|-3---3---|x12

Strings tabbed for guitar
E|--8--7---------|
B|--------10--8--|
G|---------------|
D|---------------|
A|---------------|
E|---------------|

"...big, big plans" (I think the 2 to 3 slide plays smoother)
E|-----------------------------------------|
B|-----------------------------------------|
G|-----------------------------------------|
D|---5---5---5---5---5---5---5---5---5---5-|
A|--2---2--3---3---------------------------|
E|-----------------3---3---3---3---3---3---|

Repeat once

"...slow, just slow enough to make you uncomfortable"
E|-----------------------------------------------------------------|
B|-----------------------------------------------------------------|
G|-----------------------------------------------------------------|
D|---5---5---5---5---5---5---5---5---5---5---5---5-----------------|
A|-----------------5---5----2---2--3---3---3---3---5-5-5-5-5-5-5-5-|
E|-5---5---5---5-----------------------------------3-3-3-3-3-3-3-3-|

Return to

E|---------|
B|---------|
G|---------|
D|---5---5-|
A|---------|
E|-3---3---|

Next part repeats the verse with a small variation
"anything to get the taste out of my mouth"
E|-----------------|
B|-----------------|
G|-------5-5-------|
D|-5-5---5-5---5~--|
A|-5-5---3-3---5~--|
E|-3-3---------3~--|

"confident...but I hear you..."
E|-----------------------------------------------------------------|
B|-----------------------------------------------------------------|
G|-----------------------------------------------------------------|
D|---5---5---5---5---5---5---5---5---5---5---5---5--5---5-5-5-5----|
A|-----------------5---5----2---2--3---3---3---3---3--3---3-3-3----|
E|-5---5---5---5---------------------------------------------------|

Chorus

E|-------------------------------------------|
B|-------------------------------------------|
G|-------------------------------------------|
D|-------------------------------------------|
A|-3-3-3-3-2-2-2-2--5--5--5--5--5--5--5--5---|
E|-1-1-1-1-0-0-0-0--3--3--3--3--3--3--3--3---|x4

Strum these:
"but you are an artist..."
E|---
B|---
G|---
D|-5-
A|-5-
E|-3-

*break*


"...bathroom"
E|---
B|---
G|---
D|-5-
A|-5-
E|-3-

"...thinking, how did I get here?"
E|---
B|---
G|-5-
D|-5-
A|-3-
E|---
Tap to rate this tab
# A B C D E F G H I J K L M N O P Q R S T U V W X Y Z