Song name
# A B C D E F G H I J K L M N O P Q R S T U V W X Y Z

The Front Bottoms - Legit Tattoo Gun tab

-------------------------------------------------------------------------------
                    Legit Tattoo Gun - The Front Bottoms
-------------------------------------------------------------------------------
Tabbed by:TheFutileEngine

Tuning:Standard
Intro/Verse ("My head has thoughts....")
e|-----------------------------------------------------------------|
B|-----------------------------------------------------------------|
G|-----------------------------------------------------------------|
D|---0---0---0---0---0---0---0---0---0---0---0----0---0---0---0---0|
A|-2---2---2---4---5---5---5---5---9---9---9---12---7---7---7---7--|
E|-----------------------------------------------------------------|

Pre-Chorus 

e|------------------------------------------------------------------|
B|------------------------------------------------------------------|
G|------------------------------------------------------------------|
D|---0---0---0----0---0---0---0---0---0---0---0---0---0---0---0---0-|
A|-5---5---5---10---9---9---9---9---3---3---3---3---2---2---2---2---|
E|------------------------------------------------------------------|

Chorus ("But I am not a dirty god...") (11's not 1's)

e|--------------------------------------------|
B|--------------------------------------------|
G|--------------------------------------------|
D|-7777777777777777-1111111111111111-99999999-|
A|-5555555555555555-9-9-9-9-9-9-9-9--77777777-|
E|--------------------------------------------|

Bridge ("I am the water...")  Either hold out the notes or strum 8ths

e|------------------|
B|------------------|
G|------------------|
D|--7--9~~~~~5~~~~~~|
A|--5--7~~~~~3~~~~~~|
E|------------------|
Tap to rate this tab
 
# A B C D E F G H I J K L M N O P Q R S T U V W X Y Z