Song name
# A B C D E F G H I J K L M N O P Q R S T U V W X Y Z

The Front Bottoms - Jim Bogart tab

Verse
E|---------------|
B|---------------|
G|---------------|
D|--10-----7--5--|  x2
A|--8---8--5--3--|
E|------6--------|


Chorus
E|-----------------|
B|-----------------|
G|-----------------|
D|--3--7-----5--3--| x4
A|--1--5--5--3--1--|
E|--------3--------|


Chorus pt.2
E|--------------|
B|--------------|
G|--------------|
D|--3-----7--5--|
A|--1--5--5--3--| x2
E|-----3--------|

Repeat Verse

Then Chorus and Chorus pt.2

Outro
E|----------------|
B|----------------|
G|----------------|
D|--------10--10--| x2
A|--7--8--8---8---|
E|--5--6----------|


Play this after you repeat the outro and end on that F5
E|------------|
B|------------|
G|------------|
D|--6--7--10--|
A|--4--5--8---|
E|------------|
Tap to rate this tab
 
# A B C D E F G H I J K L M N O P Q R S T U V W X Y Z