Song name
# A B C D E F G H I J K L M N O P Q R S T U V W X Y Z

The Front Bottoms - Flashlight tab

Flashlight by The Front Bottoms

Intro
e [-----------------------------------------------------------------------------------|
B [-----------------------------------------------------------------------------------|
G [-----------------------------------------------------------------------------------|
D [-----7------7--------9------9--9--------7------7-----------------------------------|
A [-9-----9---------7-----7------------5------5------------7--------7--7--------------|
E [-------------------------------------------------------5-------5-------------------|


e [-----------------------------------------------------------------------------------|
B [-----------------------------------------------------------------------------------|
G [-----------------------------------------------------------------------------------|
D [-----------------------------------------------------------------------------------|
A [-------4-------4-------7-------7--7-------7-------7----7---------------------------|
E [--2-------2-------4-------4-----------5-------5---------5--------------------------|


Verse  (listen for strumming patterns)
e [-----------------------------------------------------------------------------------|
B [-----------------------------------------------------------------------------------|
G [-----------------------------------------------------------------------------------|
D [---7--------9-------7--------------------------------------------------------------|
A [---9--------7-------5--------7--------4---------7---------7------------------------|
E [-------------------------------5--------2---------4---------5----------------------|

Pre Corus Part One (listen for strumming patterns)
e [----------------------------------------------------------------------------------|
B [----------------------------------------------------------------------------------|
G [----------------------------------------------------------------------------------|
D [----------------------------------------------------------------------------------|
A [---7-------7--------4---------2---------------------------------------------------|
E [---5-------4--------2---------0---------------------------------------------------|


Pre Chorus Part Two (listen for strumming patterns)
e [-----------------------------------------------------------------------------------|
B [-----------------------------------------------------------------------------------|
G [-----------------------------------------------------------------------------------|
D [---7-------------------------------------------------------------------------------|
A [---5-------------------------------------------------------------------------------|
E [-----------------------------------------------------------------------------------|



Chorus (listen for strumming patterns)
e [----------------------------------------------------------------------------------|
B [----------------------------------------------------------------------------------|
G [----------------------------------------------------------------------------------|
D [----------------------------------7-----------------------------------------------|
A [---7-------2---------7----------5-------------------------------------------------|
E [---5-------0---------5------------------------------------------------------------|


Lyrics:
Verse
Please fall asleep so I can take pictures of you and hang them in my room
So when I wake up Iíll be like Yea, everything's alright.
You are still here, you are still happy, you are still smiling and laughing
You are still the only thing and everything I need in my life

Pre Chorus Part 1
And it goes in, in, out through the mouth, breathing exercises I will never figure out
So I am running in circles or walking in circles or crawling in circles or lying on the ground

Pre Chorus Part 2

Chorus
And I can hear your dog whistle from my bedroom
And I can see a flashlight cutting up the trees behind my house

Verse
She says a lot of the kids we graduated with are now homeless which puts them in mad 
shady situations with mad shady people if not everyday than on an every other day basis
And sheís probably with a few of them right now and they are probably just drinking and 
talking about how she misses getting fucked up and hanging around
And he says Hey, youíre good at that and she says Thanks. Itís kind of all Iíve got and 
than she looks away and says Itís also all I need

Pre Chorus Part 1
And I can smell plastic burning I can smell chemicals breaking down
I got your last three emails, the ones where said you were sorting some things out

Pre Chorus Part 2

Chorus
And he will be able to hear her dog whistle from his bedroom
And I will see a flashlight cutting up the trees behind my house
And I will read the flashing like a Morse code explanation that will mean nothing but 
take all night to figure out

Verse
I am sad when I am sad but when Iím happy oh god Iím happy
Thereís just no place in between for us to meet
(Please fall asleep so I can take pictures of you and hang them in my room
So when I wake up Iíll be like Yea, everythingís alright.
You are still here, you are still happy, you are still smiling and laughing
You are still the only thing and everything I need in my life)
Tap to rate this tab
# A B C D E F G H I J K L M N O P Q R S T U V W X Y Z