Song name
# A B C D E F G H I J K L M N O P Q R S T U V W X Y Z

The Front Bottoms - Mountain tab

-------------------------------------------------------------------------------
                             MOUNTAIN - The Front Bottoms
-------------------------------------------------------------------------------
Tabbed by: Matt LeFevers

Tuning: Standard

Chords used:
(lowest string to highest)
G5    - 355xxx
C5    - x355xx
D5    - x577xx
E5    - x799xx
D5/F# - 20023x
Em    - 022000
F5    - 133xxx


INTRO:
G5 - C5 - D5 - D5


VERSE:
   C5            E5     D5        C5            E5     D5
E------------------------------|------------------------------|
B------------------------------|------------------------------|
G--5--5---5-5----9--9---7--7---|--5--5---5-5----9--9---7--7---|
D--5--5---5-5----9--9---7--7---|--5--5---5-5----9--9---7--7---|
A--3--3---3-3----7--7---5--5---|--3--3---3-3----7--7---5--5---|
E------------------------------|------------------------------|

I am climbing up this mountain
So I can ride my skateboard right back down it
But first I am digging myself out of this hole

             Em                 D5/F#              C5          E5 D5
I love your eyes, the way they look when you're uncomfortable


CHORUS:
          G5          D5                C5
I bought fireworks ,a big bag in Pennsylvania
            G5               D5               C5
I'm gonna light them up when I get home to Jersey
                    D5
They'll probably arrest me
                G5            C5
It'll probably ruin my whole summer
              D5                  D5/F#
Stop taking pictures with your phone
             G5                     D5
Stop taking pictures with your phone


POST CHORUS 1:
   C5  D5    E5    F5        C5    D5    E5    F5
E-------------------------|---------------------------|
B-------------------------|---------------------------|
G--5---7-7---9-9---10-10--|--5-5---7-7---9-9---10-10--|
D--5---7-7---9-9---10-10--|--5-5---7-7---9-9---10-10--|
A--3---5-5---7-7---8--8---|--3-3---5-5---7-7---8--8---|
E-------------------------|---------------------------|


VERSE 2:
   C5            E5     D5         C5           E5    D5
E-------------------------------|----------------------------|
B-------------------------------|----------------------------|
G--5--5----------9--9---7--7----|----------------------------|
D--5--5--5/4-----9--9---7--7----|--5--5---5/7---9--9--7--7---|
A--3--3------5---7--7---5--5----|--3--3---------7--7--5--5---|
E-------------------------------|----------------------------|

The door sounded, when she shut it,
As if she didn't really have to leave
She just needed a separator
             Em     D5/F#   C5    E5 D5
She needed something in between


QUICK RIFF after the SECOND VERSE:
   C5                  D5                 Em
E---------------------------------------------|
B---------------------------------------------|
G--------------------------------2-2-----2-4--|
D--5-5-----5-2-2-----2-4-4----4---------------|
A---------------------------------------------|
E---------------------------------------------|


CHORUS 2 - same as CHORUS 1


POST CHORUS 2:
   C5  D5    E5    F5        C5    D5    E5    F5
E-------------------------|---------------------------|
B-------------------------|---------------------------|
G--5---7-7---9-9---10-10--|--5-5---7-7---9-9---10-10--|
D--5---7-7---9-9---10-10--|--5-5---7-7---9-9---10-10--|
A--3---5-5---7-7---8--8---|--3-3---5-5---7-7---8--8---|
E-------------------------|---------------------------|

   C5    D5    E5    F5        C5    D5    E5                  F5
E---------------------------|---------------------------------------------------|
B---------------------------|---------------------------------------------------|
G--5-5---7-7----------------|--5-5---7-7----------------------------------------|
D--5-5---7-7---2-2---3-3----|--5-5---7-7---2------------------------------------|
A--3-3---5-5---2-2---3-3----|--3-3---5-5---2--2-2-2-2-2-2-2-2--3-3-3-3-3-3-3-3--|
E--------------0-0---1-1----|--------------0--0-0-0-0-0-0-0-0--1-1-1-1-1-1-1-1--|


CHORUS 3 - same as previous
End on E5
Tap to rate this tab
# A B C D E F G H I J K L M N O P Q R S T U V W X Y Z