Song name
# A B C D E F G H I J K L M N O P Q R S T U V W X Y Z

The Front Bottoms - The Boredom Is The Reason I Started Swimming Its Also The Reason I Started Sinking tab

Intro
E---------|
B---------|
G---------| X6
D-22222222|
A-00000000|
E---------|

'Foreign countries...'
E-----------------------------------------------------------------|
B-----------------------------------------------------------------|
G-----------------------------------------------------------------| X2
D-2222222222222222999999999999999977777777777777779999999977777777|
A-0000000000000000777777777777777755555555555555557777777755555555|
E-----------------------------------------------------------------|


'And I am not sure that I want...'
E-----------------|
B-----------------|
G-----------------| X3
D-----------------|
A-7777999955555555|
E-5555777733333333|

E-----------------|
B-----------------|
G-----------------|
D-7777777777777777|
A-5555555555555555|
E-----------------|


'Cause everybody pays...'
E-----------------------------------------------------------------|
B-----------------------------------------------------------------|
G-----------------------------------------------------------------| X2
D---------------------------------77777777444444447777777744444444|
A-4~~-22~-77~-22224~~-22~-77~-999955555555222222225555555522222222|
E-2~~-00~-55~-00002~~-00~-55~-7777--------------------------------|


'Keep it simple and honest...'
E-----------------------------------------------------------------|
B-----------------------------------------------------------------|
G-----------------------------------------------------------------| X2
D-2222222222222222999999999999999977777777777777779999999977777777|
A-0000000000000000777777777777777755555555555555557777777755555555|
E-----------------------------------------------------------------|


'And I am not sure that I want...'
E-----------------|
B-----------------|
G-----------------| X3
D-----------------|
A-7777999955555555|
E-5555777733333333|

E-----------------|
B-----------------|
G-----------------|
D-7777777777777777|
A-5555555555555555|
E-----------------|


'Cause everybody pays...'
E-----------------------------------------------------------------|
B-----------------------------------------------------------------|
G-----------------------------------------------------------------| X2
D---------------------------------77777777444444447777777744444444|
A-4~~-22~-77~-22224~~-22~-77~-999955555555222222225555555522222222|
E-2~~-00~-55~-00002~~-00~-55~-7777--------------------------------|

'You're not even sleeping...'
E---------------------------------|
B---------------------------------|
G---------------------------------|
D-77777777444444447777777744444444|
A-55555555222222225555555522222222|
E---------------------------------|


Interlude
E-----------------------------------------------------------------|
B-----------------------------------------------------------------|
G-----------------------------------------------------------------|
D-------------------------77777777------------------------77--77--|
A-7777777744444444222222225555555577777777444444442222222255--55--|
E-555555552222222200000000--------555555552222222200000000--------|

E---------------------------------|
B---------------------------------|
G---------------------------------| X2
D-------------------------77777777|
A-77777777444444442222222255555555|
E-555555552222222200000000--------|


'Cause everybody pays...'
E-----------------------------------------------------------------|
B-----------------------------------------------------------------|
G-----------------------------------------------------------------| X2
D---------------------------------77777777444444447777777744444444|
A-4~~-22~-77~-22224~~-22~-77~-999955555555222222225555555522222222|
E-2~~-00~-55~-00002~~-00~-55~-7777--------------------------------|

'You're not even sleeping...'
E---------------------------------|
B---------------------------------|
G---------------------------------|
D-77777777444444447777777744444444|
A-55555555222222225555555522222222|
E---------------------------------|


Outro
E-----------------------------------------------------------------|
B-----------------------------------------------------------------|
G-----------------------------------------------------------------| X2
D-------------------------77777777------------------------77--77--|
A-7777777744444444222222225555555577777777444444442222222255--55--|
E-555555552222222200000000--------555555552222222200000000--------|
Tap to rate this tab
 
# A B C D E F G H I J K L M N O P Q R S T U V W X Y Z