Song name
# A B C D E F G H I J K L M N O P Q R S T U V W X Y Z

The Front Bottoms - Bathtub tab

'I am washing my hair with soap...'
E-----------------|
B-----------------|
G-----------------| X4
D--5-5-5-5-3-3-3-3|
A-3-3-0-0-1-1-1-1-|
E-----------------|

'Still I scrub and scrub...'
E---------------------------------|
B---------------------------------|
G---------------------------------| X2
D--3-3-3-3-3-3-3-3-3-3-3-3-3-3-3-3|
A---------0-0-0-0-1-1-1-1-3-3-3-3-|
E-1-1-1-1-------------------------|

'Relax my muscles'
E-----------------|
B-----------------|
G-----------------|
D-----------------|
A-3333333333333333|
E-1111111111111111|


'All of the sudden I am scared...'
E---------------------------------------------------------------------|
B---------------------------------------------------------------------|
G---------------------------------------------------------------------|
D------------------------------------------------------------3--------|
A-----------------33333333333333338888888810101010888811111111--------|
E-1111111111111111----------------------------------------------------|


'She says can you feel that...'
E---------------------------------------------------------------------------------|
B---------------------------------------------------------------------------------|
G---------------------------------------------------------------------------------|
D-----------------5555555555555555101010101010101010101010101010103333333333333333|
A-333333333333333333333333333333338-8-8-8-8-8-8-8-8-8-8-8-8-8-8-8-1111111111111111|
E-1111111111111111----------------------------------------------------------------|

'And I am washing my hair with soap...'
E-------------------------------------------------------------------------|
B-------------------------------------------------------------------------|
G-------------------------------------------------------------------------|
D-55553333--------55553333--------555-33----------55553333----------------|
A-33331111333333333333111133333333333-11--33333333333311113333333333333333|
E---------11111111--------11111111--------11111111--------1111111111111111|


'But, there is air inside of my lungs...'
E-----------------|
B-----------------|
G-----------------| X4
D--5-5-5-5-3-3-3-3|
A-3-3-0-0-1-1-1-1-|
E-----------------|

'So, I will run and run maybe...'
E---------------------------------|
B---------------------------------|
G---------------------------------| X2
D--3-3-3-3-3-3-3-3-3-3-3-3-3-3-3-3|
A---------0-0-0-0-1-1-1-1-3-3-3-3-|
E-1-1-1-1-------------------------|

'Relax all the muscles in my face'
E-----------------|
B-----------------|
G-----------------|
D-----------------|
A-3333333333333333|
E-1111111111111111|


'All of the sudden I am scared...'
E---------------------------------------------------------------------|
B---------------------------------------------------------------------|
G---------------------------------------------------------------------|
D------------------------------------------------------------3--------|
A-----------------33333333333333338888888810101010888811111111--------|
E-1111111111111111----------------------------------------------------|


'She says can you feel that...'
E---------------------------------------------------------------------------------|
B---------------------------------------------------------------------------------|
G---------------------------------------------------------------------------------|
D-----------------5555555555555555101010101010101010101010101010103333333333333333|
A-333333333333333333333333333333338-8-8-8-8-8-8-8-8-8-8-8-8-8-8-8-1111111111111111|
E-1111111111111111----------------------------------------------------------------|

'And I am washing my hair with soap...'
E-----------------------------------------------------------------|
B-----------------------------------------------------------------|
G-----------------------------------------------------------------|
D-55553333--------55553333--------555-33----------55553333--------|
A-33331111333333333333111133333333333-11--333333333333111133333333|
E---------11111111--------11111111--------11111111--------11111111|

'With soap'
E-------------------------------------------------|
B-------------------------------------------------|
G-------------------------------------------------|
D-------------------------------------------------|
A-33333333333333333~~~~~~~~~~~~~~~~~~~~~~~~~~~~~~~|
E-11111111111111111~~~~~~~~~~~~~~~~~~~~~~~~~~~~~~~|
Tap to rate this tab
# A B C D E F G H I J K L M N O P Q R S T U V W X Y Z