Song name
# A B C D E F G H I J K L M N O P Q R S T U V W X Y Z

The Front Bottoms - Father tab

Intro/Verse (I have this dream...None of the actors even gave a f***)
e|---------------------------------------------------------------|
B|---------------------------------------------------------------|
G|-----3---5---3-------------------------------------------------|
D|-3---3---5---3-------------------------------------------------|
A|-3---1---3---1-------------------------------------------------|
E|-1-------------------------------------------------------------|



Pre Chorus- "You look good tonight...inside your head"
e|---------------------------------------------------------------|
B|---------------------------------------------------------------|
G|--7---5---3---then----7---5-------3---5------------------------|
D|--7---5---3-----------7---5---3---3---3------------------------|
A|--5---3---1-----------5---3---3---1---3------------------------|
E|------------------------------1--------------------------------|


Chorus (You were high school...I was just more like real life)
e|---------------------------------------------------------------|
B|---------------------------------------------------------------|
G|--3---5---7-----10---------------------------------------------|
D|--3---5---7-----10---8-----------------------------------------|
A|--1---3---5-----8----8-----------------------------------------|
E|---------------------6-----------------------------------------|


All easy chords, the strumming can be a little tricky on the chorus but just practice it 
and youll be fine. All
Tap to rate this tab
# A B C D E F G H I J K L M N O P Q R S T U V W X Y Z