Song name
# A B C D E F G H I J K L M N O P Q R S T U V W X Y Z

The Front Bottoms - Lonely Eyes tab

 Lonely Eyes

 by: The Front Bottoms

 on the album:I Hate My Friends


 I didn't see a tab ANYWHERE for this, so I whipped one up homeboy...
 I think it's right.  You just gotta figure out the strumming pattern and order then 
it's eazy peazy.

Standard tuning

e|-------------------------------------------|
b|-------------------------------------------|
g|-------------------------------------------|
d|----7---7-------5------4-------------------|
a|----7---7-------5------4-------------------|
E|----5---4-------3------2-------------------|


e|-------------------------------------------|
b|-------------------------------------------|
g|---4----6----7----6------------------------|
d|---4----6----7----6------------------------|
a|---2----4----5----4------------------------|
E|-------------------------------------------|

e|-------------------------------------------|
b|-------------------------------------------|
g|--------6----7----6------------------------| <-- I think? piano messes with me
d|---7----6----7----6-------7----------------|
a|---7----4----5----4-------7----------------|
E|---5----------------------5----------------|

That's basically it
Tap to rate this tab
# A B C D E F G H I J K L M N O P Q R S T U V W X Y Z