Song name
# A B C D E F G H I J K L M N O P Q R S T U V W X Y Z

The Heavy - Short Change Hero chords

Highlighted       Show chord diagrams
Band: The Heavy
Song: Short Change Hero
Tabbed by CBHarris


               C#m       B          F#         G#
E:  -----4--|--2--|--2--|--4--|
B:  -----5--|--4--|--2--|--4--|
G: -----6--|--4--|--3--|--5--|
D: -----6--|--4--|--4--|--6--|
A: -----4--|--2--|--4--|--6--|
E:  -----4--|--2--|--2--|--4--|


Intro (Play Twice)

E: -----------------------------------------|
B: -----------------------------------------|
G: -------------8---9-----13--11--8-9-11----|
D: ----9--11--------------------------------|
A: -----------------------------------------|
E: -----------------------------------------|

E: ----------------------------------------|
B: ----------------------------------------|
G: ------------------8---9-----13--11------|
D: ------9--11-----------------------------|
A: ----------------------------------------|
E: ----------------------------------------|

E: -------------------------------------------|
B: -----------------------------12------------|
G: ---------------8---9-----13------11-9---8--|
D: ------9--11--------------------------------|
A: -------------------------------------------|
E: -------------------------------------------|

E: --------------------------------------|
B: --------------------------------------|
G: -----------------8--9------8----------|
D: ----9----11-------------------11------|
A: --------------------------------------|
E: --------------------------------------|



Verse Chords

C#m  B  F# (repeat throughout)


Chorus Chords

C#m  B  F#  (repeat the pattern throughout)


Bridge

F# C#m x3

then

F# C#m G# x1

Tap to rate this tab
 
# A B C D E F G H I J K L M N O P Q R S T U V W X Y Z