Song name
# A B C D E F G H I J K L M N O P Q R S T U V W X Y Z

The Heavy - Short Change Hero chords

Highlighted       Show chord diagrams
Short change  hero
The heavy

Capo 4
   

Em
I can't see where you're comin' from 
But I know just what you're runnin' from 
G                        A
And what matters thinkin' who's baddest but the 
Em
Ones who stop you falling from your ladder 

Em
When you feel like you're feeling now 
And doin' things just to please your crowd 
G                        A
When I love you like the way I love you 
Em
And I suffer but I ain't gonna cut you 'cause 


Chorus: 

Em
This ain't no place for no hero 
This ain't no place for no better man 
G                          A
This ain't no place for no hero 
     Em
To go home 

Bridge: 

Am                       Em
And every time I close my eyes 
 Am                       Em
I think, I think about you inside 
 Am                              Em
And your mother givin' up on asking why 
Am
Why you lie and you cheat 
       Em                       D7
and you try to make a fool out of she 

Outro: 


e:--------|-------------|----------|------------| 
B:--------|-------------|----------|------------| 
G:--------|----------8--|-9-----13-|-11--8-9-11-| 
D:----9---|-11----------|----------|------------| 
A:--------|-------------|----------|------------| 
E:--------|-------------|----------|------------| 

e:--------|-------------|----------|----------| 
B:--------|-------------|----------|----------| 
G:--------|-----------8-|-9-------8|----------| 
D:------9-|---11--------|----------|--11------| 
A:--------|-------------|----------|----------| 
E:--------|-------------|----------|----------| 
Tap to rate this tab
# A B C D E F G H I J K L M N O P Q R S T U V W X Y Z