Song name
# A B C D E F G H I J K L M N O P Q R S T U V W X Y Z

The Horrors - Little Victories tab

LITTLE VICTORIES

VERSE:
e|----------------------------------------------------------|
b|----------------------------------------------------------|
g|--6666666666666666-7777777777777777-----------------------|
d|--6666666666666666-7777777777777777-----------------------|
a|--4444444444444444-5555555555555555-----------------------|
e|----------------------------------------------------------|

e|----------------------------------------------------------|
b|----------------------------------------------------------|
g|--6666666666666666-77777777-99999999----------------------|
d|--6666666666666666-77777777-99999999----------------------|
a|--4444444444444444-55555555-77777777----------------------|
e|----------------------------------------------------------|

CHORUS:
(first open strings then:  )

e|---------------------6-5-------6-5------------------------|
b|--6-5--------6-5---------8-7-8-----8----------------------|
g|------7-6-7------7----------------------------------------|
d|----------------------------------------------------------|
a|----------------------------------------------------------|
e|----------------------------------------------------------|

e|---------------------6-5-------6-5--9---------------------|
b|--6-5--------6-5---------8-7-8----------------------------|
g|------7-6-7------7----------------------------------------|
d|----------------------------------------------------------|
a|----------------------------------------------------------|
e|----------------------------------------------------------|

VERSE
CHORUS
VERSE

BRIDGE:
e|----------------------------------------------------------|
b|----------------------------------------------------------|
g|--9-9--8-7------------------------------------------------|
d|--9-9--8-7------------------------------------------------|
a|--7-7--6-5------------------------------------------------|
e|----------------------------------------------------------|

VERSE
CHORUS
OUTRO (mainly strumming behind bridge)


x
Tap to rate this tab
# A B C D E F G H I J K L M N O P Q R S T U V W X Y Z