Song name
# A B C D E F G H I J K L M N O P Q R S T U V W X Y Z

The Katinas - Thank You tab

Thank You
By: The Katinas
Tabs by: Kuya Joms
From Kadayawan Four Square, Bangkal, Davao City, Philippines
Text me: 0918-662-5434,for any comment or request or suggestions:
God Bless Us All!!!

Note: Since I can't find any tablature of this song, I Hardly made it on my own"
      This the First tabs Submitted in all website. Dated December 17, 2009.

     " BE A BETTER MUSICIAN SHARE YOUR TALENT TO ALL CHRISTIAN BELIEVERS"

Here's the solo part:


---------------------------------2\--------------|
---------------------1h3-5--3-5--3\-7-7--8-8/10--|
-2h3p0---------1h2-4-------------2\-7-7--9-9/11--|
---------2-4-------------------------------------|
-------------------------------------------------|
-------------------------------------------------|


----10-12/14-14-14---12-10-10--10h12-------|
-/10--------------------------------10-----|
-------------------------------------------|
-------------------------------------------|
-------------------------------------------|
-------------------------------------------|


-------------------------------------10-10-|
-7-8-8/10-10-8--8/10-7------3-3---/10------|
-7-9-9/11-11-9--9/11-7---2h4---------------|
-------------------------------------------|
-------------------------------------------|
-------------------------------------------|

-9-12-9h10-9-------------------------------|
-------------10--10/12-10--10----10/12-10--|
---------------11--------11----11----------|
-------------------------------------------|
-------------------------------------------|
-------------------------------------------|


9h10p9-------------------------------------|
------10------------------10/12-10---------|
--------11-9/11-9--9/11-7------------------|
-------------------------------------------|
-------------------------------------------|
-------------------------------------------|

outro:

-----------------------0--------------------|
-5-6-6/8-6-5---------1-1--------------------|
-5-7-7/9-7-5----0-0h2--0--------------------|
-----------------------2--------------------|
-----------------------3--------------------|
-----------------------3--------------------|

Enjoy!

Special Thanks to KC my Baby, To My Wife Meemee (-)--i
Tap to rate this tab
 
# A B C D E F G H I J K L M N O P Q R S T U V W X Y Z