Song name
# A B C D E F G H I J K L M N O P Q R S T U V W X Y Z

The Kills - Fuck The People tab

--------------------------------------------------------------------------|
------------------------------5-5-5-3-3-3-0-------------------------------|
------0-------0---------------5-5-5-3-3-3-0-------------------------------|
7-7-7-0-7-7-770-7-7-7-10------5-5-5-3-3-3-0-------------------------------|
7-7-7---7-7-77--7-7-7-10--------------------------------------------------|
--------------------------------------------------------------------------|


-------------------------------------------------------|
-------------------------------------------------------|
-------------------------------4~~---------------------|
--------------------------7-7--------------------------|
1/---12/--1/---11-0-------7-7--------------------------|
-------------------------------------------------------|
Tap to rate this tab
 
# A B C D E F G H I J K L M N O P Q R S T U V W X Y Z