Song name
# A B C D E F G H I J K L M N O P Q R S T U V W X Y Z

The Last Vegas - Apologize tab

THE LAST VEGAS
APOLOGIZE
tabbed by T
email wasssup@hotmail.co.uk for any correstions, comments, or
donations to my charity. you too can feel the warm feeling that comes with the  
knowledge that your money is getting me trashed.
tuning: standard (e B G d A E)
no timings included, just what they play, no refunds etc.

INTRO

e----------0------------------0--------------------------------------------| 
B---3-3-----3----------3-3-----3----------1-1--3p1----1-----1-1---1--3p1---|
G----4---4---4---4------4---4---4---4------0--0---0--0-0-----2---2--2---2--|
D-5-------------5-5--3-------------3-3--------------2---2-1--------------1-|
A--------------5---5--------------5---5-3----------------------------------|
E--------------------------------------------------------------------------|
x4
CHORUS

e---------------------------------| X3
B---------------------------------|
G--------7-7-77-9-9-99------------|
D-5-5-55-7-7-77-9-9-99-10-10-1010-|
A-5-5-55-5-5-55-7-7-77-10-10-1010-|
E-3-3-33----------------8--8--8-8-|

e-------------------------------|
B-------------------------------|
G----------------5-5-5-5-5-5-55-|
D-7-7-7-7-7-7-77-5-5-5-5-5-5-55-|
A-7-7-7-7-7-7-77-3-3-3-3-3-3-33-|
E-5-5-5-5-5-5-55----------------|

VERSE
no idea what he's doing, so i'll give you the chords
e-3-------0-----| X4
B-3-------1-----|
G-0-------0---8-|
D-0---3---2---8-|
A-x---3---3---6-|
E-3---1---------|

CHORUS

e---------------------------------| X3
B---------------------------------|
G--------7-7-77-9-9-99------------|
D-5-5-55-7-7-77-9-9-99-10-10-1010-|
A-5-5-55-5-5-55-7-7-77-10-10-1010-|
E-3-3-33----------------8--8--8-8-|

e---------------------------------|
B---------------------------------|
G----------------5-5-5-5-5-5-55---|
D-7-7-7-7-7-7-77-5-5-5-5-5-5-55-5-|
A-7-7-7-7-7-7-77-3-3-3-3-3-3-33-5-|
E-5-5-5-5-5-5-55----------------3-|
leave the G hanging
BRIDGE

e-----------------------------------------------------|
B-----------------------------------------------------|
G-10-10-1010---------------------10-10-1010--------7~-|
D-10-10-1010-7-7-77-5-5-5-5-5-55-10-10-1010-7-7-77-7~-|
A--8--8--8-8-7-7-77-5-5-5-5-5-55--8--8--8-8-7-7-77-5~-|
E------------5-5-55-3-3-3-3-3-33------------5-5-55----|

SOLO

e---------------------------------------------------|
B---------------------------------------------------|
G---12b14r12~--12b14r12~--12-14-14b16r14-12---------|
D-12---------12---------12-----------------12b14r12-|
A---------------------------------------------------|
E---------------------------------------------------|

e---------------------------------------------------|
B---------------------------------------------------|
G----12--101210-------------------------------------|
D-/12--12------10-10b12r10p8-----8b10r8-------------|
A---------------------------10-10------10-8---------|
E------------------------------------------10-8-6-3-|

e-------------------------15----------------------------------------|
B---------------------------15-----15-------------------------------|
G----12-14-16-14b16r14-12-----14b16--14b16r14-12--12--17p16-14--12~-|
D-/12-------------------------------------------14------------14----|
A-------------------------------------------------------------------|
E-------------------------------------------------------------------|

e-----------------------------------|
B-----------------------------------|
G-121212p11111111p9-7/9/11/12b14r12-|
D-----------------------------------|
A-----------------------------------|
E-----------------------------------|

CHORUS
come in after the first time
e---------------------| 
B---------------------|
G---9-9-99------------|
D---9-9-99-10-10-1010-|
A---7-7-77-10-10-1010-|
E-----------8--8--8-8-|

e---------------------------------| 
B---------------------------------|
G--------7-7-77-9-9-99------------|
D-5-5-55-7-7-77-9-9-99-10-10-1010-|
A-5-5-55-5-5-55-7-7-77-10-10-1010-|
E-3-3-33----------------8--8--8-8-|

e-------------------------------| X2
B-------------------------------|
G----------------5-5-5-5-5-5-55-|
D-7-7-7-7-7-7-77-5-5-5-5-5-5-55-|
A-7-7-7-7-7-7-77-3-3-3-3-3-3-33-|
E-5-5-5-5-5-5-55----------------|

e-----------------------------| X2
B-----------------------------|
G---------------5-5-55-8-8-88-|
D-5-5-55-3-3-33-5-5-55-8-8-88-|
A-5-5-55-3-3-33-3-3-33-6-6-66-|
E-3-3-33-1-1-11---------------|

OUTRO SOLO

e---------------------------------------------------|
B---------------------------------------------------|
G---12b14r12~--12b14r12~--12-14-14b16r14-12---------|
D-12---------12---------12-----------------12b14r12-|
A---------------------------------------------------|
E---------------------------------------------------|

e-------------------------------------------------------|
B-------------------------------------------------------|
G-----12--10--------------------------------------------|
D-/12~--12--12-10b12r10p8--8----------------------------|
A------------------------10-10-8------------------------|
E-------------------------------10-9-8b10r8b10r8b10r8-6-|

e-15b17-15b17r15~-15--13--------------------------------------------|
B-------------------15--15-15b17r15p13------15----------15----------|
G-------------------------------------12-12-14b16r14-12-14b16r14-12-|
D-------------------------------------------------------------------|
A-------------------------------------------------------------------|
E-------------------------------------------------------------------|

e----------13-----------------------------------------------------------|
B-13--13b15--13b15r13--------------------15-----------------------------|
G---12---------------12-12---------12-14-14b16r14-12--12-151514141212---|
D-------------------------141312--------------------14---------------/5-|
A-------------------------------15~-------------------------------------|
E-----------------------------------------------------------------------|

e-----------------------------------|
B--8-8b10r8-8b10r8-8-10-10b12r10-8--|
G---7------7------7---------------7-|
D-5---------------------------------|
A-----------------------------------|
E-----------------------------------|

e---3--|
B----3-|
G--0---|
D------|
A------|
E-3----|
fade out on this arpeggio
Tap to rate this tab
 
# A B C D E F G H I J K L M N O P Q R S T U V W X Y Z