Song name
# A B C D E F G H I J K L M N O P Q R S T U V W X Y Z

The Lonely Island - Yolo tab

                                       "YOLO"
                                  The Lonely Island

Tabbed by: Tony C

This is a great song by The Lonely Island, featuring Adam Levine and Kendrick Lamar.

The rhythms are pretty audible in the recording and theres only two basic parts to it.

Chorus is sung by Adam Levine.

When Kendrick Lamar raps you can simply switch to playing the root note palm muted.



        Verse

e---8-----8----------------------------------------------------------|
B---10----10---------------------------------------------------------|
G---10----10------7--------7-----------------------------------------|
D---10----10------8--------8---------7--7-------------7--7-----------|
A---8-----8-------8--------8---------5--5----5---7----5--5----5---7--|
E-----------------6--------6-----------------3---5------------3---5--|

        Chorus
e---8---------------------------------------|
B---10--------------------------------------|
G---10--------------7-----------------7-----|
D---10--------------8--------7--------8-----|
A---8---------------8--------5--------8-----|
E-------------------6-----------------6-----|
        (Strum each chord 8 times)



Remember- you only live once.
Tap to rate this tab
 
# A B C D E F G H I J K L M N O P Q R S T U V W X Y Z